ISO-10303-21;
HEADER;
/****************************************************************
 * Generated by software with PDE/Lib inside                    *
 * PDElib Version 4.0, created Mon Oct 07, 2002 at 18:44:48     *
 * International Technegroup Inc. (www.iti-oh.com)              *
 ****************************************************************/
FILE_DESCRIPTION((''),'2;1');
FILE_NAME('C:\\Documents and Settings\\mihara\\My Documents\\meg\\drawings\\Inventor\\Vessel_Support_Assembly\\Outer_holder\\Lshape.stp','2004-08-18T12:26:06',('mihara'),(''),'Autodesk Inventor 8','Autodesk Inventor 8','');
FILE_SCHEMA(('AUTOMOTIVE_DESIGN { 1 0 10303 214 1 1 1 1 }'));
ENDSEC;
DATA;
#5=APPLICATION_CONTEXT('automotive design');
#6=APPLICATION_PROTOCOL_DEFINITION('Draft International Standard','automotive_design',1998,#5);
#7=PRODUCT_CONTEXT('None',#5,'mechanical');
#8=PRODUCT('Lshape','Lshape','None',(#7));
#9=PRODUCT_RELATED_PRODUCT_CATEGORY('part','description',(#8));
#10=PRODUCT_DEFINITION_FORMATION('None','None',#8);
#11=PRODUCT_DEFINITION_CONTEXT('part definition',#5,'design');
#12=PRODUCT_DEFINITION('None','None',#10,#11);
#18=(NAMED_UNIT(*)PLANE_ANGLE_UNIT()SI_UNIT($,.RADIAN.));
#19=DIMENSIONAL_EXPONENTS(0.0,0.0,0.0,0.0,0.0,0.0,0.0);
#20=PLANE_ANGLE_MEASURE_WITH_UNIT(PLANE_ANGLE_MEASURE(0.017453292500000),#18);
#24=(CONVERSION_BASED_UNIT('DEGREE',#20)NAMED_UNIT(#19)PLANE_ANGLE_UNIT());
#28=(NAMED_UNIT(*)SI_UNIT($,.STERADIAN.)SOLID_ANGLE_UNIT());
#32=(LENGTH_UNIT()NAMED_UNIT(*)SI_UNIT(.MILLI.,.METRE.));
#34=UNCERTAINTY_MEASURE_WITH_UNIT(LENGTH_MEASURE(0.000001000000000),#32,'DISTANCE_ACCURACY_VALUE','');
#36=(GEOMETRIC_REPRESENTATION_CONTEXT(3)GLOBAL_UNCERTAINTY_ASSIGNED_CONTEXT((#34))GLOBAL_UNIT_ASSIGNED_CONTEXT((#24,#28,#32))REPRESENTATION_CONTEXT('None','None'));
#37=AXIS2_PLACEMENT_3D('',#38,#39,#40);
#38=CARTESIAN_POINT('',(0.0,0.0,0.0));
#39=DIRECTION('',(0.0,0.0,1.0));
#40=DIRECTION('',(1.0,0.0,0.0));
#41=SHAPE_REPRESENTATION('',(#37),#36);
#42=PRODUCT_DEFINITION_SHAPE('','',#12);
#43=SHAPE_DEFINITION_REPRESENTATION(#42,#41);
#44=CARTESIAN_POINT('',(-16.564798831989840,1085.084617599162600,0.0));
#45=CARTESIAN_POINT('',(-16.564798831989840,1085.084617599162600,3.0));
#46=CARTESIAN_POINT('',(-16.564798831989840,1080.084617599162600,0.0));
#47=CARTESIAN_POINT('',(-16.564798831989840,1080.084617599162600,3.0));
#48=CARTESIAN_POINT('',(-21.564798831989840,1080.084617599162600,0.0));
#49=CARTESIAN_POINT('',(-21.564798831989840,1080.084617599162600,3.0));
#50=CARTESIAN_POINT('',(-26.564798831989840,1080.084617599162600,0.0));
#51=CARTESIAN_POINT('',(-26.564798831989840,1080.084617599162600,3.0));
#52=CARTESIAN_POINT('',(-26.564798831989840,1085.084617599162600,0.0));
#53=CARTESIAN_POINT('',(-26.564798831989840,1085.084617599162600,3.0));
#54=CARTESIAN_POINT('',(-26.564798831989840,1090.084617599162600,0.0));
#55=CARTESIAN_POINT('',(-26.564798831989840,1090.084617599162600,3.0));
#56=CARTESIAN_POINT('',(-21.564798831989840,1090.084617599162600,0.0));
#57=CARTESIAN_POINT('',(-21.564798831989840,1090.084617599162600,3.0));
#58=CARTESIAN_POINT('',(-16.564798831989840,1090.084617599162600,0.0));
#59=CARTESIAN_POINT('',(-16.564798831989840,1090.084617599162600,3.0));
#60=CARTESIAN_POINT('',(-16.564798831989840,1085.084617599162600,0.0));
#61=CARTESIAN_POINT('',(-16.564798831989840,1085.084617599162600,3.0));
#69=(BOUNDED_SURFACE()B_SPLINE_SURFACE(1,2,((#44,#46,#48,#50,#52,#54,#56,#58,#60),(#45,#47,#49,#51,#53,#55,#57,#59,#61)),.UNSPECIFIED.,.F.,.T.,.U.)B_SPLINE_SURFACE_WITH_KNOTS((2,2),(3,2,2,2,3),(-8.246211251235300,-7.646211251235300),(0.0,7.853981633974483,15.707963267948966,23.561944901923447,31.415926535897931),.UNSPECIFIED.)GEOMETRIC_REPRESENTATION_ITEM()RATIONAL_B_SPLINE_SURFACE(((1.0,0.707106781186548,1.0,0.707106781186548,1.0,0.707106781186548,1.0,0.707106781186548,1.0),(1.0,0.707106781186548,1.0,0.707106781186548,1.0,0.707106781186548,1.0,0.707106781186548,1.0)))REPRESENTATION_ITEM('')SURFACE());
#70=CARTESIAN_POINT('',(-26.564798831989840,1085.084617599162600,2.999999999999998));
#71=VERTEX_POINT('',#70);
#72=CARTESIAN_POINT('',(-26.564798831989840,1085.084617599162600,0.0));
#73=VERTEX_POINT('',#72);
#74=CARTESIAN_POINT('',(-26.564798831989840,1085.084617599162600,2.999999999999998));
#75=DIRECTION('',(0.0,0.0,-1.0));
#76=VECTOR('',#75,2.999999999999998);
#77=LINE('',#74,#76);
#78=EDGE_CURVE('',#71,#73,#77,.T.);
#79=ORIENTED_EDGE('',*,*,#78,.F.);
#80=CARTESIAN_POINT('',(-16.564798831989840,1085.084617599162600,2.999999999999998));
#81=VERTEX_POINT('',#80);
#82=CARTESIAN_POINT('',(-21.564798831989840,1085.084617599162600,2.999999999999998));
#83=DIRECTION('',(0.0,0.0,-1.0));
#84=DIRECTION('',(-1.0,0.0,0.0));
#85=AXIS2_PLACEMENT_3D('',#82,#83,#84);
#86=CIRCLE('',#85,5.0);
#87=EDGE_CURVE('',#81,#71,#86,.T.);
#88=ORIENTED_EDGE('',*,*,#87,.F.);
#89=CARTESIAN_POINT('',(-16.564798831989840,1085.084617599162600,0.0));
#90=VERTEX_POINT('',#89);
#91=CARTESIAN_POINT('',(-16.564798831989840,1085.084617599162600,0.0));
#92=DIRECTION('',(0.0,0.0,1.0));
#93=VECTOR('',#92,2.999999999999998);
#94=LINE('',#91,#93);
#95=EDGE_CURVE('',#90,#81,#94,.T.);
#96=ORIENTED_EDGE('',*,*,#95,.F.);
#97=CARTESIAN_POINT('',(-21.564798831989840,1085.084617599162600,0.0));
#98=DIRECTION('',(0.0,0.0,1.0));
#99=DIRECTION('',(-1.0,0.0,0.0));
#100=AXIS2_PLACEMENT_3D('',#97,#98,#99);
#101=CIRCLE('',#100,5.0);
#102=EDGE_CURVE('',#73,#90,#101,.T.);
#103=ORIENTED_EDGE('',*,*,#102,.F.);
#104=EDGE_LOOP('',(#79,#88,#96,#103));
#105=FACE_OUTER_BOUND('',#104,.T.);
#106=ADVANCED_FACE('',(#105),#69,.F.);
#107=CARTESIAN_POINT('',(-16.564798831989840,1085.084617599162600,0.0));
#108=CARTESIAN_POINT('',(-16.564798831989840,1085.084617599162600,3.0));
#109=CARTESIAN_POINT('',(-16.564798831989840,1080.084617599162600,0.0));
#110=CARTESIAN_POINT('',(-16.564798831989840,1080.084617599162600,3.0));
#111=CARTESIAN_POINT('',(-21.564798831989840,1080.084617599162600,0.0));
#112=CARTESIAN_POINT('',(-21.564798831989840,1080.084617599162600,3.0));
#113=CARTESIAN_POINT('',(-26.564798831989840,1080.084617599162600,0.0));
#114=CARTESIAN_POINT('',(-26.564798831989840,1080.084617599162600,3.0));
#115=CARTESIAN_POINT('',(-26.564798831989840,1085.084617599162600,0.0));
#116=CARTESIAN_POINT('',(-26.564798831989840,1085.084617599162600,3.0));
#117=CARTESIAN_POINT('',(-26.564798831989840,1090.084617599162600,0.0));
#118=CARTESIAN_POINT('',(-26.564798831989840,1090.084617599162600,3.0));
#119=CARTESIAN_POINT('',(-21.564798831989840,1090.084617599162600,0.0));
#120=CARTESIAN_POINT('',(-21.564798831989840,1090.084617599162600,3.0));
#121=CARTESIAN_POINT('',(-16.564798831989840,1090.084617599162600,0.0));
#122=CARTESIAN_POINT('',(-16.564798831989840,1090.084617599162600,3.0));
#123=CARTESIAN_POINT('',(-16.564798831989840,1085.084617599162600,0.0));
#124=CARTESIAN_POINT('',(-16.564798831989840,1085.084617599162600,3.0));
#132=(BOUNDED_SURFACE()B_SPLINE_SURFACE(1,2,((#107,#109,#111,#113,#115,#117,#119,#121,#123),(#108,#110,#112,#114,#116,#118,#120,#122,#124)),.UNSPECIFIED.,.F.,.T.,.U.)B_SPLINE_SURFACE_WITH_KNOTS((2,2),(3,2,2,2,3),(-8.246211251235300,-7.646211251235300),(0.0,7.853981633974483,15.707963267948966,23.561944901923447,31.415926535897931),.UNSPECIFIED.)GEOMETRIC_REPRESENTATION_ITEM()RATIONAL_B_SPLINE_SURFACE(((1.0,0.707106781186548,1.0,0.707106781186548,1.0,0.707106781186548,1.0,0.707106781186548,1.0),(1.0,0.707106781186548,1.0,0.707106781186548,1.0,0.707106781186548,1.0,0.707106781186548,1.0)))REPRESENTATION_ITEM('')SURFACE());
#133=ORIENTED_EDGE('',*,*,#78,.T.);
#134=CARTESIAN_POINT('',(-21.564798831989840,1085.084617599162600,0.0));
#135=DIRECTION('',(0.0,0.0,1.0));
#136=DIRECTION('',(-1.0,0.0,0.0));
#137=AXIS2_PLACEMENT_3D('',#134,#135,#136);
#138=CIRCLE('',#137,5.0);
#139=EDGE_CURVE('',#90,#73,#138,.T.);
#140=ORIENTED_EDGE('',*,*,#139,.F.);
#141=ORIENTED_EDGE('',*,*,#95,.T.);
#142=CARTESIAN_POINT('',(-21.564798831989840,1085.084617599162600,2.999999999999998));
#143=DIRECTION('',(0.0,0.0,-1.0));
#144=DIRECTION('',(-1.0,0.0,0.0));
#145=AXIS2_PLACEMENT_3D('',#142,#143,#144);
#146=CIRCLE('',#145,5.0);
#147=EDGE_CURVE('',#71,#81,#146,.T.);
#148=ORIENTED_EDGE('',*,*,#147,.F.);
#149=EDGE_LOOP('',(#133,#140,#141,#148));
#150=FACE_OUTER_BOUND('',#149,.T.);
#151=ADVANCED_FACE('',(#150),#132,.F.);
#152=CARTESIAN_POINT('',(-31.564798831989840,1097.084617599162600,2.999999999999996));
#153=DIRECTION('',(0.0,0.0,-1.0));
#154=DIRECTION('',(-1.0,0.0,0.0));
#155=AXIS2_PLACEMENT_3D('',#152,#153,#154);
#156=PLANE('',#155);
#157=CARTESIAN_POINT('',(-11.564798831989842,1097.084617599162600,2.999999999999996));
#158=VERTEX_POINT('',#157);
#159=CARTESIAN_POINT('',(-11.564798831989842,1070.084617599162600,3.000000000000002));
#160=VERTEX_POINT('',#159);
#161=CARTESIAN_POINT('',(-11.564798831989842,1097.084617599162600,2.999999999999996));
#162=DIRECTION('',(0.0,-1.0,0.0));
#163=VECTOR('',#162,27.0);
#164=LINE('',#161,#163);
#165=EDGE_CURVE('',#158,#160,#164,.T.);
#166=ORIENTED_EDGE('',*,*,#165,.F.);
#167=CARTESIAN_POINT('',(-31.564798831989840,1097.084617599162600,2.999999999999996));
#168=VERTEX_POINT('',#167);
#169=CARTESIAN_POINT('',(-31.564798831989840,1097.084617599162600,2.999999999999996));
#170=DIRECTION('',(1.0,0.0,0.0));
#171=VECTOR('',#170,20.0);
#172=LINE('',#169,#171);
#173=EDGE_CURVE('',#168,#158,#172,.T.);
#174=ORIENTED_EDGE('',*,*,#173,.F.);
#175=CARTESIAN_POINT('',(-31.564798831989840,1070.084617599162600,3.000000000000002));
#176=VERTEX_POINT('',#175);
#177=CARTESIAN_POINT('',(-31.564798831989840,1070.084617599162600,3.000000000000002));
#178=DIRECTION('',(0.0,1.0,0.0));
#179=VECTOR('',#178,27.0);
#180=LINE('',#177,#179);
#181=EDGE_CURVE('',#176,#168,#180,.T.);
#182=ORIENTED_EDGE('',*,*,#181,.F.);
#183=CARTESIAN_POINT('',(-11.564798831989842,1070.084617599162600,3.000000000000002));
#184=DIRECTION('',(-1.0,0.0,0.0));
#185=VECTOR('',#184,20.0);
#186=LINE('',#183,#185);
#187=EDGE_CURVE('',#160,#176,#186,.T.);
#188=ORIENTED_EDGE('',*,*,#187,.F.);
#189=EDGE_LOOP('',(#166,#174,#182,#188));
#190=FACE_OUTER_BOUND('',#189,.T.);
#191=ORIENTED_EDGE('',*,*,#87,.T.);
#192=ORIENTED_EDGE('',*,*,#147,.T.);
#193=EDGE_LOOP('',(#191,#192));
#194=FACE_BOUND('',#193,.T.);
#195=ADVANCED_FACE('',(#190,#194),#156,.F.);
#196=CARTESIAN_POINT('',(-31.564798831989840,1097.084617599162600,20.0));
#197=DIRECTION('',(0.0,1.0,0.0));
#198=DIRECTION('',(0.0,0.0,1.0));
#199=AXIS2_PLACEMENT_3D('',#196,#197,#198);
#200=PLANE('',#199);
#201=CARTESIAN_POINT('',(-11.564798831989842,1097.084617599162600,20.0));
#202=VERTEX_POINT('',#201);
#203=CARTESIAN_POINT('',(-11.564798831989842,1097.084617599162600,20.0));
#204=DIRECTION('',(0.0,0.0,-1.0));
#205=VECTOR('',#204,17.000000000000004);
#206=LINE('',#203,#205);
#207=EDGE_CURVE('',#202,#158,#206,.T.);
#208=ORIENTED_EDGE('',*,*,#207,.F.);
#209=CARTESIAN_POINT('',(-31.564798831989840,1097.084617599162600,20.0));
#210=VERTEX_POINT('',#209);
#211=CARTESIAN_POINT('',(-31.564798831989840,1097.084617599162600,20.0));
#212=DIRECTION('',(1.0,0.0,0.0));
#213=VECTOR('',#212,20.0);
#214=LINE('',#211,#213);
#215=EDGE_CURVE('',#210,#202,#214,.T.);
#216=ORIENTED_EDGE('',*,*,#215,.F.);
#217=CARTESIAN_POINT('',(-31.564798831989840,1097.084617599162600,2.999999999999996));
#218=DIRECTION('',(0.0,0.0,1.0));
#219=VECTOR('',#218,17.000000000000004);
#220=LINE('',#217,#219);
#221=EDGE_CURVE('',#168,#210,#220,.T.);
#222=ORIENTED_EDGE('',*,*,#221,.F.);
#223=ORIENTED_EDGE('',*,*,#173,.T.);
#224=EDGE_LOOP('',(#208,#216,#222,#223));
#225=FACE_OUTER_BOUND('',#224,.T.);
#226=ADVANCED_FACE('',(#225),#200,.F.);
#227=CARTESIAN_POINT('',(-21.564798831989840,1070.084617599162600,0.0));
#228=DIRECTION('',(0.0,-1.0,0.0));
#229=DIRECTION('',(0.0,0.0,-1.0));
#230=AXIS2_PLACEMENT_3D('',#227,#228,#229);
#231=PLANE('',#230);
#232=ORIENTED_EDGE('',*,*,#187,.T.);
#233=CARTESIAN_POINT('',(-31.564798831989840,1070.084617599162600,0.0));
#234=VERTEX_POINT('',#233);
#235=CARTESIAN_POINT('',(-31.564798831989840,1070.084617599162600,0.0));
#236=DIRECTION('',(0.0,0.0,1.0));
#237=VECTOR('',#236,3.000000000000002);
#238=LINE('',#235,#237);
#239=EDGE_CURVE('',#234,#176,#238,.T.);
#240=ORIENTED_EDGE('',*,*,#239,.F.);
#241=CARTESIAN_POINT('',(-11.564798831989842,1070.084617599162600,0.0));
#242=VERTEX_POINT('',#241);
#243=CARTESIAN_POINT('',(-31.564798831989840,1070.084617599162600,0.0));
#244=DIRECTION('',(1.0,0.0,0.0));
#245=VECTOR('',#244,20.0);
#246=LINE('',#243,#245);
#247=EDGE_CURVE('',#234,#242,#246,.T.);
#248=ORIENTED_EDGE('',*,*,#247,.T.);
#249=CARTESIAN_POINT('',(-11.564798831989842,1070.084617599162600,0.0));
#250=DIRECTION('',(0.0,0.0,1.0));
#251=VECTOR('',#250,3.000000000000002);
#252=LINE('',#249,#251);
#253=EDGE_CURVE('',#242,#160,#252,.T.);
#254=ORIENTED_EDGE('',*,*,#253,.T.);
#255=EDGE_LOOP('',(#232,#240,#248,#254));
#256=FACE_OUTER_BOUND('',#255,.T.);
#257=ADVANCED_FACE('',(#256),#231,.T.);
#258=CARTESIAN_POINT('',(-31.564798831989840,1070.084617599162600,0.0));
#259=DIRECTION('',(-1.0,0.0,0.0));
#260=DIRECTION('',(0.0,0.0,1.0));
#261=AXIS2_PLACEMENT_3D('',#258,#259,#260);
#262=PLANE('',#261);
#263=ORIENTED_EDGE('',*,*,#181,.T.);
#264=ORIENTED_EDGE('',*,*,#221,.T.);
#265=CARTESIAN_POINT('',(-31.564798831989840,1100.039347318765100,20.0));
#266=VERTEX_POINT('',#265);
#267=CARTESIAN_POINT('',(-31.564798831989840,1097.084617599162600,20.0));
#268=DIRECTION('',(0.0,1.0,0.0));
#269=VECTOR('',#268,2.954729719602483);
#270=LINE('',#267,#269);
#271=EDGE_CURVE('',#210,#266,#270,.T.);
#272=ORIENTED_EDGE('',*,*,#271,.T.);
#273=CARTESIAN_POINT('',(-31.564798831989840,1100.039347318765100,0.0));
#274=VERTEX_POINT('',#273);
#275=CARTESIAN_POINT('',(-31.564798831989840,1100.039347318765100,0.0));
#276=DIRECTION('',(0.0,0.0,1.0));
#277=VECTOR('',#276,20.0);
#278=LINE('',#275,#277);
#279=EDGE_CURVE('',#274,#266,#278,.T.);
#280=ORIENTED_EDGE('',*,*,#279,.F.);
#281=CARTESIAN_POINT('',(-31.564798831989840,1100.039347318765100,0.0));
#282=DIRECTION('',(0.0,-1.0,0.0));
#283=VECTOR('',#282,29.954729719602483);
#284=LINE('',#281,#283);
#285=EDGE_CURVE('',#274,#234,#284,.T.);
#286=ORIENTED_EDGE('',*,*,#285,.T.);
#287=ORIENTED_EDGE('',*,*,#239,.T.);
#288=EDGE_LOOP('',(#263,#264,#272,#280,#286,#287));
#289=FACE_OUTER_BOUND('',#288,.T.);
#290=ADVANCED_FACE('',(#289),#262,.T.);
#291=CARTESIAN_POINT('',(-11.564798831989842,1100.039347318765100,0.0));
#292=DIRECTION('',(1.0,0.0,0.0));
#293=DIRECTION('',(0.0,0.0,-1.0));
#294=AXIS2_PLACEMENT_3D('',#291,#292,#293);
#295=PLANE('',#294);
#296=ORIENTED_EDGE('',*,*,#165,.T.);
#297=ORIENTED_EDGE('',*,*,#253,.F.);
#298=CARTESIAN_POINT('',(-11.564798831989842,1100.039347318765100,0.0));
#299=VERTEX_POINT('',#298);
#300=CARTESIAN_POINT('',(-11.564798831989842,1070.084617599162600,0.0));
#301=DIRECTION('',(0.0,1.0,0.0));
#302=VECTOR('',#301,29.954729719602483);
#303=LINE('',#300,#302);
#304=EDGE_CURVE('',#242,#299,#303,.T.);
#305=ORIENTED_EDGE('',*,*,#304,.T.);
#306=CARTESIAN_POINT('',(-11.564798831989842,1100.039347318765100,20.0));
#307=VERTEX_POINT('',#306);
#308=CARTESIAN_POINT('',(-11.564798831989842,1100.039347318765100,0.0));
#309=DIRECTION('',(0.0,0.0,1.0));
#310=VECTOR('',#309,20.0);
#311=LINE('',#308,#310);
#312=EDGE_CURVE('',#299,#307,#311,.T.);
#313=ORIENTED_EDGE('',*,*,#312,.T.);
#314=CARTESIAN_POINT('',(-11.564798831989842,1100.039347318765100,20.0));
#315=DIRECTION('',(0.0,-1.0,0.0));
#316=VECTOR('',#315,2.954729719602483);
#317=LINE('',#314,#316);
#318=EDGE_CURVE('',#307,#202,#317,.T.);
#319=ORIENTED_EDGE('',*,*,#318,.T.);
#320=ORIENTED_EDGE('',*,*,#207,.T.);
#321=EDGE_LOOP('',(#296,#297,#305,#313,#319,#320));
#322=FACE_OUTER_BOUND('',#321,.T.);
#323=ADVANCED_FACE('',(#322),#295,.T.);
#324=CARTESIAN_POINT('',(-21.564798831989840,-4.415382400837480,0.0));
#325=DIRECTION('',(0.0,0.0,1.0));
#326=DIRECTION('',(0.009053870529651,0.999959012874244,0.0));
#327=AXIS2_PLACEMENT_3D('',#324,#325,#326);
#328=CYLINDRICAL_SURFACE('',#327,1104.500000000000000);
#329=CARTESIAN_POINT('',(-21.564798831989840,-4.415382400837480,20.0));
#330=DIRECTION('',(0.0,0.0,-1.000000000000000));
#331=DIRECTION('',(0.009053870529651,0.999959012874244,0.0));
#332=AXIS2_PLACEMENT_3D('',#329,#330,#331);
#333=CIRCLE('',#332,1104.499999999999800);
#334=EDGE_CURVE('',#266,#307,#333,.T.);
#335=ORIENTED_EDGE('',*,*,#334,.T.);
#336=ORIENTED_EDGE('',*,*,#312,.F.);
#337=CARTESIAN_POINT('',(-21.564798831989840,-4.415382400837480,0.0));
#338=DIRECTION('',(0.0,0.0,1.000000000000000));
#339=DIRECTION('',(0.009053870529651,0.999959012874244,0.0));
#340=AXIS2_PLACEMENT_3D('',#337,#338,#339);
#341=CIRCLE('',#340,1104.499999999999800);
#342=EDGE_CURVE('',#299,#274,#341,.T.);
#343=ORIENTED_EDGE('',*,*,#342,.T.);
#344=ORIENTED_EDGE('',*,*,#279,.T.);
#345=EDGE_LOOP('',(#335,#336,#343,#344));
#346=FACE_OUTER_BOUND('',#345,.T.);
#347=ADVANCED_FACE('',(#346),#328,.T.);
#348=CARTESIAN_POINT('',(-26.561971687125912,1085.074181353422300,0.0));
#349=DIRECTION('',(0.0,0.0,1.0));
#350=DIRECTION('',(1.0,0.0,0.0));
#351=AXIS2_PLACEMENT_3D('',#348,#349,#350);
#352=PLANE('',#351);
#353=ORIENTED_EDGE('',*,*,#342,.F.);
#354=ORIENTED_EDGE('',*,*,#304,.F.);
#355=ORIENTED_EDGE('',*,*,#247,.F.);
#356=ORIENTED_EDGE('',*,*,#285,.F.);
#357=EDGE_LOOP('',(#353,#354,#355,#356));
#358=FACE_OUTER_BOUND('',#357,.T.);
#359=ORIENTED_EDGE('',*,*,#102,.T.);
#360=ORIENTED_EDGE('',*,*,#139,.T.);
#361=EDGE_LOOP('',(#359,#360));
#362=FACE_BOUND('',#361,.T.);
#363=ADVANCED_FACE('',(#358,#362),#352,.F.);
#364=CARTESIAN_POINT('',(-26.561971687125915,1085.074181353421900,20.0));
#365=DIRECTION('',(0.0,0.0,1.0));
#366=DIRECTION('',(1.0,0.0,0.0));
#367=AXIS2_PLACEMENT_3D('',#364,#365,#366);
#368=PLANE('',#367);
#369=ORIENTED_EDGE('',*,*,#215,.T.);
#370=ORIENTED_EDGE('',*,*,#318,.F.);
#371=ORIENTED_EDGE('',*,*,#334,.F.);
#372=ORIENTED_EDGE('',*,*,#271,.F.);
#373=EDGE_LOOP('',(#369,#370,#371,#372));
#374=FACE_OUTER_BOUND('',#373,.T.);
#375=ADVANCED_FACE('',(#374),#368,.T.);
#376=CLOSED_SHELL('',(#106,#151,#195,#226,#257,#290,#323,#347,#363,#375));
#377=MANIFOLD_SOLID_BREP('',#376);
#378=COLOUR_RGB('Default',0.752941191196442,0.752941191196442,0.752941191196442);
#379=FILL_AREA_STYLE_COLOUR('Default',#378);
#380=FILL_AREA_STYLE('Default',(#379));
#381=SURFACE_STYLE_FILL_AREA(#380);
#382=SURFACE_SIDE_STYLE('Default',(#381));
#383=SURFACE_STYLE_USAGE(.BOTH.,#382);
#384=PRESENTATION_STYLE_ASSIGNMENT((#383));
#385=STYLED_ITEM('',(#384),#377);
#386=MECHANICAL_DESIGN_GEOMETRIC_PRESENTATION_REPRESENTATION('',(#385),#36);
#387=ADVANCED_BREP_SHAPE_REPRESENTATION('ABSR',(#377),#36);
#388=SHAPE_REPRESENTATION_RELATIONSHIP('SRR','None',#387,#41);
ENDSEC;
END-ISO-10303-21;
