ISO-10303-21;
HEADER;
/****************************************************************
 * Generated by software with PDE/Lib inside                    *
 * PDElib Version 4.0, created Mon Oct 07, 2002 at 18:44:48     *
 * International Technegroup Inc. (www.iti-oh.com)              *
 ****************************************************************/
FILE_DESCRIPTION((''),'2;1');
FILE_NAME('C:\\Documents and Settings\\mihara\\My Documents\\meg\\drawings\\Inventor\\Vessel_Support_Assembly\\Inner_holder_v3_040817\\adjust_part3.stp','2004-08-18T12:30:36',('mihara'),(''),'Autodesk Inventor 8','Autodesk Inventor 8','');
FILE_SCHEMA(('AUTOMOTIVE_DESIGN { 1 0 10303 214 1 1 1 1 }'));
ENDSEC;
DATA;
#5=APPLICATION_CONTEXT('automotive design');
#6=APPLICATION_PROTOCOL_DEFINITION('Draft International Standard','automotive_design',1998,#5);
#7=PRODUCT_CONTEXT('None',#5,'mechanical');
#8=PRODUCT('adjust_part3','adjust_part3','None',(#7));
#9=PRODUCT_RELATED_PRODUCT_CATEGORY('part','description',(#8));
#10=PRODUCT_DEFINITION_FORMATION('None','None',#8);
#11=PRODUCT_DEFINITION_CONTEXT('part definition',#5,'design');
#12=PRODUCT_DEFINITION('None','None',#10,#11);
#18=(NAMED_UNIT(*)PLANE_ANGLE_UNIT()SI_UNIT($,.RADIAN.));
#19=DIMENSIONAL_EXPONENTS(0.0,0.0,0.0,0.0,0.0,0.0,0.0);
#20=PLANE_ANGLE_MEASURE_WITH_UNIT(PLANE_ANGLE_MEASURE(0.017453292500000),#18);
#24=(CONVERSION_BASED_UNIT('DEGREE',#20)NAMED_UNIT(#19)PLANE_ANGLE_UNIT());
#28=(NAMED_UNIT(*)SI_UNIT($,.STERADIAN.)SOLID_ANGLE_UNIT());
#32=(LENGTH_UNIT()NAMED_UNIT(*)SI_UNIT(.MILLI.,.METRE.));
#34=UNCERTAINTY_MEASURE_WITH_UNIT(LENGTH_MEASURE(0.000001000000000),#32,'DISTANCE_ACCURACY_VALUE','');
#36=(GEOMETRIC_REPRESENTATION_CONTEXT(3)GLOBAL_UNCERTAINTY_ASSIGNED_CONTEXT((#34))GLOBAL_UNIT_ASSIGNED_CONTEXT((#24,#28,#32))REPRESENTATION_CONTEXT('None','None'));
#37=AXIS2_PLACEMENT_3D('',#38,#39,#40);
#38=CARTESIAN_POINT('',(0.0,0.0,0.0));
#39=DIRECTION('',(0.0,0.0,1.0));
#40=DIRECTION('',(1.0,0.0,0.0));
#41=SHAPE_REPRESENTATION('',(#37),#36);
#42=PRODUCT_DEFINITION_SHAPE('','',#12);
#43=SHAPE_DEFINITION_REPRESENTATION(#42,#41);
#44=CARTESIAN_POINT('',(-26.000000000000004,641.000000000000110,10.0));
#45=CARTESIAN_POINT('',(-26.000000000000004,641.000000000000110,3.552714E-015));
#46=CARTESIAN_POINT('',(-26.000000000000004,638.000000000000110,10.0));
#47=CARTESIAN_POINT('',(-26.000000000000004,638.000000000000110,3.552714E-015));
#48=CARTESIAN_POINT('',(-23.000000000000004,638.000000000000110,10.0));
#49=CARTESIAN_POINT('',(-23.000000000000004,638.000000000000110,3.552714E-015));
#50=CARTESIAN_POINT('',(-20.000000000000004,638.000000000000110,10.0));
#51=CARTESIAN_POINT('',(-20.000000000000004,638.000000000000110,3.552714E-015));
#52=CARTESIAN_POINT('',(-20.000000000000004,641.000000000000110,10.0));
#53=CARTESIAN_POINT('',(-20.000000000000004,641.000000000000110,3.552714E-015));
#54=CARTESIAN_POINT('',(-20.000000000000004,644.000000000000110,10.0));
#55=CARTESIAN_POINT('',(-20.000000000000004,644.000000000000110,3.552714E-015));
#56=CARTESIAN_POINT('',(-23.000000000000004,644.000000000000110,10.0));
#57=CARTESIAN_POINT('',(-23.000000000000004,644.000000000000110,3.552714E-015));
#58=CARTESIAN_POINT('',(-26.000000000000004,644.000000000000110,10.0));
#59=CARTESIAN_POINT('',(-26.000000000000004,644.000000000000110,3.552714E-015));
#60=CARTESIAN_POINT('',(-26.000000000000004,641.000000000000110,10.0));
#61=CARTESIAN_POINT('',(-26.000000000000004,641.000000000000110,3.552714E-015));
#69=(BOUNDED_SURFACE()B_SPLINE_SURFACE(1,2,((#44,#46,#48,#50,#52,#54,#56,#58,#60),(#45,#47,#49,#51,#53,#55,#57,#59,#61)),.UNSPECIFIED.,.F.,.T.,.U.)B_SPLINE_SURFACE_WITH_KNOTS((2,2),(3,2,2,2,3),(-11.551818737099046,-8.218485403765714),(0.0,4.712388980384691,9.424777960769381,14.137166941154071,18.849555921538762),.UNSPECIFIED.)GEOMETRIC_REPRESENTATION_ITEM()RATIONAL_B_SPLINE_SURFACE(((1.0,0.707106781186548,1.0,0.707106781186548,1.0,0.707106781186548,1.0,0.707106781186548,1.0),(1.0,0.707106781186548,1.0,0.707106781186548,1.0,0.707106781186548,1.0,0.707106781186548,1.0)))REPRESENTATION_ITEM('')SURFACE());
#70=CARTESIAN_POINT('',(-20.000000000000004,641.000000000000110,0.0));
#71=VERTEX_POINT('',#70);
#72=CARTESIAN_POINT('',(-20.0,641.000000000000110,10.0));
#73=VERTEX_POINT('',#72);
#74=CARTESIAN_POINT('',(-20.000000000000004,641.000000000000110,0.0));
#75=DIRECTION('',(0.0,0.0,1.0));
#76=VECTOR('',#75,10.0);
#77=LINE('',#74,#76);
#78=EDGE_CURVE('',#71,#73,#77,.T.);
#79=ORIENTED_EDGE('',*,*,#78,.F.);
#80=CARTESIAN_POINT('',(-26.000000000000007,641.000000000000110,0.0));
#81=VERTEX_POINT('',#80);
#82=CARTESIAN_POINT('',(-23.000000000000004,641.000000000000110,0.0));
#83=DIRECTION('',(0.0,0.0,1.0));
#84=DIRECTION('',(1.0,0.0,0.0));
#85=AXIS2_PLACEMENT_3D('',#82,#83,#84);
#86=CIRCLE('',#85,3.000000000000000);
#87=EDGE_CURVE('',#81,#71,#86,.T.);
#88=ORIENTED_EDGE('',*,*,#87,.F.);
#89=CARTESIAN_POINT('',(-26.000000000000004,641.000000000000110,10.0));
#90=VERTEX_POINT('',#89);
#91=CARTESIAN_POINT('',(-26.000000000000004,641.000000000000110,10.0));
#92=DIRECTION('',(0.0,0.0,-1.0));
#93=VECTOR('',#92,10.0);
#94=LINE('',#91,#93);
#95=EDGE_CURVE('',#90,#81,#94,.T.);
#96=ORIENTED_EDGE('',*,*,#95,.F.);
#97=CARTESIAN_POINT('',(-23.000000000000004,641.000000000000110,10.0));
#98=DIRECTION('',(0.0,0.0,-1.0));
#99=DIRECTION('',(1.0,0.0,0.0));
#100=AXIS2_PLACEMENT_3D('',#97,#98,#99);
#101=CIRCLE('',#100,3.000000000000000);
#102=EDGE_CURVE('',#73,#90,#101,.T.);
#103=ORIENTED_EDGE('',*,*,#102,.F.);
#104=EDGE_LOOP('',(#79,#88,#96,#103));
#105=FACE_OUTER_BOUND('',#104,.T.);
#106=ADVANCED_FACE('',(#105),#69,.F.);
#107=CARTESIAN_POINT('',(-40.0,641.0,10.0));
#108=CARTESIAN_POINT('',(-40.0,641.0,3.552714E-015));
#109=CARTESIAN_POINT('',(-40.0,638.0,10.0));
#110=CARTESIAN_POINT('',(-40.0,638.0,3.552714E-015));
#111=CARTESIAN_POINT('',(-37.0,638.0,10.0));
#112=CARTESIAN_POINT('',(-37.0,638.0,3.552714E-015));
#113=CARTESIAN_POINT('',(-34.0,638.0,10.0));
#114=CARTESIAN_POINT('',(-34.0,638.0,3.552714E-015));
#115=CARTESIAN_POINT('',(-34.0,641.0,10.0));
#116=CARTESIAN_POINT('',(-34.0,641.0,3.552714E-015));
#117=CARTESIAN_POINT('',(-34.0,644.0,10.0));
#118=CARTESIAN_POINT('',(-34.0,644.0,3.552714E-015));
#119=CARTESIAN_POINT('',(-37.0,644.0,10.0));
#120=CARTESIAN_POINT('',(-37.0,644.0,3.552714E-015));
#121=CARTESIAN_POINT('',(-40.0,644.0,10.0));
#122=CARTESIAN_POINT('',(-40.0,644.0,3.552714E-015));
#123=CARTESIAN_POINT('',(-40.0,641.0,10.0));
#124=CARTESIAN_POINT('',(-40.0,641.0,3.552714E-015));
#132=(BOUNDED_SURFACE()B_SPLINE_SURFACE(1,2,((#107,#109,#111,#113,#115,#117,#119,#121,#123),(#108,#110,#112,#114,#116,#118,#120,#122,#124)),.UNSPECIFIED.,.F.,.T.,.U.)B_SPLINE_SURFACE_WITH_KNOTS((2,2),(3,2,2,2,3),(-11.551818737099046,-8.218485403765714),(0.0,4.712388980384691,9.424777960769381,14.137166941154071,18.849555921538762),.UNSPECIFIED.)GEOMETRIC_REPRESENTATION_ITEM()RATIONAL_B_SPLINE_SURFACE(((1.0,0.707106781186548,1.0,0.707106781186548,1.0,0.707106781186548,1.0,0.707106781186548,1.0),(1.0,0.707106781186548,1.0,0.707106781186548,1.0,0.707106781186548,1.0,0.707106781186548,1.0)))REPRESENTATION_ITEM('')SURFACE());
#133=CARTESIAN_POINT('',(-34.0,641.0,0.0));
#134=VERTEX_POINT('',#133);
#135=CARTESIAN_POINT('',(-34.0,641.0,10.0));
#136=VERTEX_POINT('',#135);
#137=CARTESIAN_POINT('',(-34.0,641.0,0.0));
#138=DIRECTION('',(0.0,0.0,1.0));
#139=VECTOR('',#138,10.0);
#140=LINE('',#137,#139);
#141=EDGE_CURVE('',#134,#136,#140,.T.);
#142=ORIENTED_EDGE('',*,*,#141,.F.);
#143=CARTESIAN_POINT('',(-40.0,641.0,0.0));
#144=VERTEX_POINT('',#143);
#145=CARTESIAN_POINT('',(-37.0,641.0,0.0));
#146=DIRECTION('',(0.0,0.0,1.0));
#147=DIRECTION('',(1.0,0.0,0.0));
#148=AXIS2_PLACEMENT_3D('',#145,#146,#147);
#149=CIRCLE('',#148,3.000000000000000);
#150=EDGE_CURVE('',#144,#134,#149,.T.);
#151=ORIENTED_EDGE('',*,*,#150,.F.);
#152=CARTESIAN_POINT('',(-40.0,641.0,10.0));
#153=VERTEX_POINT('',#152);
#154=CARTESIAN_POINT('',(-40.0,641.0,10.0));
#155=DIRECTION('',(0.0,0.0,-1.0));
#156=VECTOR('',#155,10.0);
#157=LINE('',#154,#156);
#158=EDGE_CURVE('',#153,#144,#157,.T.);
#159=ORIENTED_EDGE('',*,*,#158,.F.);
#160=CARTESIAN_POINT('',(-37.0,641.0,10.0));
#161=DIRECTION('',(0.0,0.0,-1.0));
#162=DIRECTION('',(1.0,0.0,0.0));
#163=AXIS2_PLACEMENT_3D('',#160,#161,#162);
#164=CIRCLE('',#163,3.000000000000000);
#165=EDGE_CURVE('',#136,#153,#164,.T.);
#166=ORIENTED_EDGE('',*,*,#165,.F.);
#167=EDGE_LOOP('',(#142,#151,#159,#166));
#168=FACE_OUTER_BOUND('',#167,.T.);
#169=ADVANCED_FACE('',(#168),#132,.F.);
#170=CARTESIAN_POINT('',(-40.0,641.0,10.0));
#171=CARTESIAN_POINT('',(-40.0,641.0,3.552714E-015));
#172=CARTESIAN_POINT('',(-40.0,638.0,10.0));
#173=CARTESIAN_POINT('',(-40.0,638.0,3.552714E-015));
#174=CARTESIAN_POINT('',(-37.0,638.0,10.0));
#175=CARTESIAN_POINT('',(-37.0,638.0,3.552714E-015));
#176=CARTESIAN_POINT('',(-34.0,638.0,10.0));
#177=CARTESIAN_POINT('',(-34.0,638.0,3.552714E-015));
#178=CARTESIAN_POINT('',(-34.0,641.0,10.0));
#179=CARTESIAN_POINT('',(-34.0,641.0,3.552714E-015));
#180=CARTESIAN_POINT('',(-34.0,644.0,10.0));
#181=CARTESIAN_POINT('',(-34.0,644.0,3.552714E-015));
#182=CARTESIAN_POINT('',(-37.0,644.0,10.0));
#183=CARTESIAN_POINT('',(-37.0,644.0,3.552714E-015));
#184=CARTESIAN_POINT('',(-40.0,644.0,10.0));
#185=CARTESIAN_POINT('',(-40.0,644.0,3.552714E-015));
#186=CARTESIAN_POINT('',(-40.0,641.0,10.0));
#187=CARTESIAN_POINT('',(-40.0,641.0,3.552714E-015));
#195=(BOUNDED_SURFACE()B_SPLINE_SURFACE(1,2,((#170,#172,#174,#176,#178,#180,#182,#184,#186),(#171,#173,#175,#177,#179,#181,#183,#185,#187)),.UNSPECIFIED.,.F.,.T.,.U.)B_SPLINE_SURFACE_WITH_KNOTS((2,2),(3,2,2,2,3),(-11.551818737099046,-8.218485403765714),(0.0,4.712388980384691,9.424777960769381,14.137166941154071,18.849555921538762),.UNSPECIFIED.)GEOMETRIC_REPRESENTATION_ITEM()RATIONAL_B_SPLINE_SURFACE(((1.0,0.707106781186548,1.0,0.707106781186548,1.0,0.707106781186548,1.0,0.707106781186548,1.0),(1.0,0.707106781186548,1.0,0.707106781186548,1.0,0.707106781186548,1.0,0.707106781186548,1.0)))REPRESENTATION_ITEM('')SURFACE());
#196=ORIENTED_EDGE('',*,*,#141,.T.);
#197=CARTESIAN_POINT('',(-37.0,641.0,10.0));
#198=DIRECTION('',(0.0,0.0,-1.0));
#199=DIRECTION('',(1.0,0.0,0.0));
#200=AXIS2_PLACEMENT_3D('',#197,#198,#199);
#201=CIRCLE('',#200,3.000000000000000);
#202=EDGE_CURVE('',#153,#136,#201,.T.);
#203=ORIENTED_EDGE('',*,*,#202,.F.);
#204=ORIENTED_EDGE('',*,*,#158,.T.);
#205=CARTESIAN_POINT('',(-37.0,641.0,0.0));
#206=DIRECTION('',(0.0,0.0,1.0));
#207=DIRECTION('',(1.0,0.0,0.0));
#208=AXIS2_PLACEMENT_3D('',#205,#206,#207);
#209=CIRCLE('',#208,3.000000000000000);
#210=EDGE_CURVE('',#134,#144,#209,.T.);
#211=ORIENTED_EDGE('',*,*,#210,.F.);
#212=EDGE_LOOP('',(#196,#203,#204,#211));
#213=FACE_OUTER_BOUND('',#212,.T.);
#214=ADVANCED_FACE('',(#213),#195,.F.);
#215=CARTESIAN_POINT('',(-26.000000000000004,641.000000000000110,10.0));
#216=CARTESIAN_POINT('',(-26.000000000000004,641.000000000000110,3.552714E-015));
#217=CARTESIAN_POINT('',(-26.000000000000004,638.000000000000110,10.0));
#218=CARTESIAN_POINT('',(-26.000000000000004,638.000000000000110,3.552714E-015));
#219=CARTESIAN_POINT('',(-23.000000000000004,638.000000000000110,10.0));
#220=CARTESIAN_POINT('',(-23.000000000000004,638.000000000000110,3.552714E-015));
#221=CARTESIAN_POINT('',(-20.000000000000004,638.000000000000110,10.0));
#222=CARTESIAN_POINT('',(-20.000000000000004,638.000000000000110,3.552714E-015));
#223=CARTESIAN_POINT('',(-20.000000000000004,641.000000000000110,10.0));
#224=CARTESIAN_POINT('',(-20.000000000000004,641.000000000000110,3.552714E-015));
#225=CARTESIAN_POINT('',(-20.000000000000004,644.000000000000110,10.0));
#226=CARTESIAN_POINT('',(-20.000000000000004,644.000000000000110,3.552714E-015));
#227=CARTESIAN_POINT('',(-23.000000000000004,644.000000000000110,10.0));
#228=CARTESIAN_POINT('',(-23.000000000000004,644.000000000000110,3.552714E-015));
#229=CARTESIAN_POINT('',(-26.000000000000004,644.000000000000110,10.0));
#230=CARTESIAN_POINT('',(-26.000000000000004,644.000000000000110,3.552714E-015));
#231=CARTESIAN_POINT('',(-26.000000000000004,641.000000000000110,10.0));
#232=CARTESIAN_POINT('',(-26.000000000000004,641.000000000000110,3.552714E-015));
#240=(BOUNDED_SURFACE()B_SPLINE_SURFACE(1,2,((#215,#217,#219,#221,#223,#225,#227,#229,#231),(#216,#218,#220,#222,#224,#226,#228,#230,#232)),.UNSPECIFIED.,.F.,.T.,.U.)B_SPLINE_SURFACE_WITH_KNOTS((2,2),(3,2,2,2,3),(-11.551818737099046,-8.218485403765714),(0.0,4.712388980384691,9.424777960769381,14.137166941154071,18.849555921538762),.UNSPECIFIED.)GEOMETRIC_REPRESENTATION_ITEM()RATIONAL_B_SPLINE_SURFACE(((1.0,0.707106781186548,1.0,0.707106781186548,1.0,0.707106781186548,1.0,0.707106781186548,1.0),(1.0,0.707106781186548,1.0,0.707106781186548,1.0,0.707106781186548,1.0,0.707106781186548,1.0)))REPRESENTATION_ITEM('')SURFACE());
#241=ORIENTED_EDGE('',*,*,#78,.T.);
#242=CARTESIAN_POINT('',(-23.000000000000004,641.000000000000110,10.0));
#243=DIRECTION('',(0.0,0.0,-1.0));
#244=DIRECTION('',(1.0,0.0,0.0));
#245=AXIS2_PLACEMENT_3D('',#242,#243,#244);
#246=CIRCLE('',#245,3.000000000000000);
#247=EDGE_CURVE('',#90,#73,#246,.T.);
#248=ORIENTED_EDGE('',*,*,#247,.F.);
#249=ORIENTED_EDGE('',*,*,#95,.T.);
#250=CARTESIAN_POINT('',(-23.000000000000004,641.000000000000110,0.0));
#251=DIRECTION('',(0.0,0.0,1.0));
#252=DIRECTION('',(1.0,0.0,0.0));
#253=AXIS2_PLACEMENT_3D('',#250,#251,#252);
#254=CIRCLE('',#253,3.000000000000000);
#255=EDGE_CURVE('',#71,#81,#254,.T.);
#256=ORIENTED_EDGE('',*,*,#255,.F.);
#257=EDGE_LOOP('',(#241,#248,#249,#256));
#258=FACE_OUTER_BOUND('',#257,.T.);
#259=ADVANCED_FACE('',(#258),#240,.F.);
#260=CARTESIAN_POINT('',(-45.0,633.822530366347910,0.0));
#261=DIRECTION('',(-1.0,0.0,0.0));
#262=DIRECTION('',(0.0,0.0,1.0));
#263=AXIS2_PLACEMENT_3D('',#260,#261,#262);
#264=PLANE('',#263);
#265=CARTESIAN_POINT('',(-45.0,633.822530366347910,10.0));
#266=VERTEX_POINT('',#265);
#267=CARTESIAN_POINT('',(-45.0,648.000000000000110,10.0));
#268=VERTEX_POINT('',#267);
#269=CARTESIAN_POINT('',(-45.0,633.822530366347910,10.0));
#270=DIRECTION('',(0.0,1.0,0.0));
#271=VECTOR('',#270,14.177469633652208);
#272=LINE('',#269,#271);
#273=EDGE_CURVE('',#266,#268,#272,.T.);
#274=ORIENTED_EDGE('',*,*,#273,.T.);
#275=CARTESIAN_POINT('',(-45.0,648.000000000000110,0.0));
#276=VERTEX_POINT('',#275);
#277=CARTESIAN_POINT('',(-45.0,648.000000000000110,0.0));
#278=DIRECTION('',(0.0,0.0,1.0));
#279=VECTOR('',#278,10.0);
#280=LINE('',#277,#279);
#281=EDGE_CURVE('',#276,#268,#280,.T.);
#282=ORIENTED_EDGE('',*,*,#281,.F.);
#283=CARTESIAN_POINT('',(-45.0,633.822530366347910,0.0));
#284=VERTEX_POINT('',#283);
#285=CARTESIAN_POINT('',(-45.0,648.000000000000110,0.0));
#286=DIRECTION('',(0.0,-1.0,0.0));
#287=VECTOR('',#286,14.177469633652208);
#288=LINE('',#285,#287);
#289=EDGE_CURVE('',#276,#284,#288,.T.);
#290=ORIENTED_EDGE('',*,*,#289,.T.);
#291=CARTESIAN_POINT('',(-45.0,633.822530366347910,0.0));
#292=DIRECTION('',(0.0,0.0,1.0));
#293=VECTOR('',#292,10.0);
#294=LINE('',#291,#293);
#295=EDGE_CURVE('',#284,#266,#294,.T.);
#296=ORIENTED_EDGE('',*,*,#295,.T.);
#297=EDGE_LOOP('',(#274,#282,#290,#296));
#298=FACE_OUTER_BOUND('',#297,.T.);
#299=ADVANCED_FACE('',(#298),#264,.T.);
#300=CARTESIAN_POINT('',(-45.0,648.000000000000110,0.0));
#301=DIRECTION('',(0.0,1.0,0.0));
#302=DIRECTION('',(0.0,0.0,1.0));
#303=AXIS2_PLACEMENT_3D('',#300,#301,#302);
#304=PLANE('',#303);
#305=CARTESIAN_POINT('',(-15.0,648.000000000000110,10.0));
#306=VERTEX_POINT('',#305);
#307=CARTESIAN_POINT('',(-45.0,648.000000000000110,10.0));
#308=DIRECTION('',(1.0,0.0,0.0));
#309=VECTOR('',#308,30.0);
#310=LINE('',#307,#309);
#311=EDGE_CURVE('',#268,#306,#310,.T.);
#312=ORIENTED_EDGE('',*,*,#311,.T.);
#313=CARTESIAN_POINT('',(-15.0,648.000000000000110,0.0));
#314=VERTEX_POINT('',#313);
#315=CARTESIAN_POINT('',(-15.0,648.000000000000110,0.0));
#316=DIRECTION('',(0.0,0.0,1.0));
#317=VECTOR('',#316,10.0);
#318=LINE('',#315,#317);
#319=EDGE_CURVE('',#314,#306,#318,.T.);
#320=ORIENTED_EDGE('',*,*,#319,.F.);
#321=CARTESIAN_POINT('',(-15.0,648.000000000000110,0.0));
#322=DIRECTION('',(-1.0,0.0,0.0));
#323=VECTOR('',#322,30.0);
#324=LINE('',#321,#323);
#325=EDGE_CURVE('',#314,#276,#324,.T.);
#326=ORIENTED_EDGE('',*,*,#325,.T.);
#327=ORIENTED_EDGE('',*,*,#281,.T.);
#328=EDGE_LOOP('',(#312,#320,#326,#327));
#329=FACE_OUTER_BOUND('',#328,.T.);
#330=ADVANCED_FACE('',(#329),#304,.T.);
#331=CARTESIAN_POINT('',(-15.0,648.000000000000110,0.0));
#332=DIRECTION('',(1.0,0.0,0.0));
#333=DIRECTION('',(0.0,0.0,-1.0));
#334=AXIS2_PLACEMENT_3D('',#331,#332,#333);
#335=PLANE('',#334);
#336=CARTESIAN_POINT('',(-15.0,633.822530366348020,10.0));
#337=VERTEX_POINT('',#336);
#338=CARTESIAN_POINT('',(-15.0,648.000000000000110,10.0));
#339=DIRECTION('',(0.0,-1.0,0.0));
#340=VECTOR('',#339,14.177469633652095);
#341=LINE('',#338,#340);
#342=EDGE_CURVE('',#306,#337,#341,.T.);
#343=ORIENTED_EDGE('',*,*,#342,.T.);
#344=CARTESIAN_POINT('',(-15.0,633.822530366348020,0.0));
#345=VERTEX_POINT('',#344);
#346=CARTESIAN_POINT('',(-15.0,633.822530366348020,0.0));
#347=DIRECTION('',(0.0,0.0,1.0));
#348=VECTOR('',#347,10.0);
#349=LINE('',#346,#348);
#350=EDGE_CURVE('',#345,#337,#349,.T.);
#351=ORIENTED_EDGE('',*,*,#350,.F.);
#352=CARTESIAN_POINT('',(-15.0,633.822530366348020,0.0));
#353=DIRECTION('',(0.0,1.0,0.0));
#354=VECTOR('',#353,14.177469633652095);
#355=LINE('',#352,#354);
#356=EDGE_CURVE('',#345,#314,#355,.T.);
#357=ORIENTED_EDGE('',*,*,#356,.T.);
#358=ORIENTED_EDGE('',*,*,#319,.T.);
#359=EDGE_LOOP('',(#343,#351,#357,#358));
#360=FACE_OUTER_BOUND('',#359,.T.);
#361=ADVANCED_FACE('',(#360),#335,.T.);
#362=CARTESIAN_POINT('',(-30.0,0.0,0.0));
#363=DIRECTION('',(0.0,0.0,1.0));
#364=DIRECTION('',(-1.0,0.0,0.0));
#365=AXIS2_PLACEMENT_3D('',#362,#363,#364);
#366=CYLINDRICAL_SURFACE('',#365,634.0);
#367=CARTESIAN_POINT('',(-30.0,0.0,10.0));
#368=DIRECTION('',(0.0,0.0,1.0));
#369=DIRECTION('',(-1.0,0.0,0.0));
#370=AXIS2_PLACEMENT_3D('',#367,#368,#369);
#371=CIRCLE('',#370,634.0);
#372=EDGE_CURVE('',#337,#266,#371,.T.);
#373=ORIENTED_EDGE('',*,*,#372,.T.);
#374=ORIENTED_EDGE('',*,*,#295,.F.);
#375=CARTESIAN_POINT('',(-30.0,0.0,0.0));
#376=DIRECTION('',(0.0,0.0,-1.0));
#377=DIRECTION('',(-1.0,0.0,0.0));
#378=AXIS2_PLACEMENT_3D('',#375,#376,#377);
#379=CIRCLE('',#378,634.0);
#380=EDGE_CURVE('',#284,#345,#379,.T.);
#381=ORIENTED_EDGE('',*,*,#380,.T.);
#382=ORIENTED_EDGE('',*,*,#350,.T.);
#383=EDGE_LOOP('',(#373,#374,#381,#382));
#384=FACE_OUTER_BOUND('',#383,.T.);
#385=ADVANCED_FACE('',(#384),#366,.F.);
#386=CARTESIAN_POINT('',(-30.000000000000021,640.947197268809760,0.0));
#387=DIRECTION('',(0.0,0.0,1.0));
#388=DIRECTION('',(1.0,0.0,0.0));
#389=AXIS2_PLACEMENT_3D('',#386,#387,#388);
#390=PLANE('',#389);
#391=ORIENTED_EDGE('',*,*,#380,.F.);
#392=ORIENTED_EDGE('',*,*,#289,.F.);
#393=ORIENTED_EDGE('',*,*,#325,.F.);
#394=ORIENTED_EDGE('',*,*,#356,.F.);
#395=EDGE_LOOP('',(#391,#392,#393,#394));
#396=FACE_OUTER_BOUND('',#395,.T.);
#397=ORIENTED_EDGE('',*,*,#150,.T.);
#398=ORIENTED_EDGE('',*,*,#210,.T.);
#399=EDGE_LOOP('',(#397,#398));
#400=FACE_BOUND('',#399,.T.);
#401=ORIENTED_EDGE('',*,*,#87,.T.);
#402=ORIENTED_EDGE('',*,*,#255,.T.);
#403=EDGE_LOOP('',(#401,#402));
#404=FACE_BOUND('',#403,.T.);
#405=ADVANCED_FACE('',(#396,#400,#404),#390,.F.);
#406=CARTESIAN_POINT('',(-30.000000000000021,640.947197268809760,10.0));
#407=DIRECTION('',(0.0,0.0,1.0));
#408=DIRECTION('',(1.0,0.0,0.0));
#409=AXIS2_PLACEMENT_3D('',#406,#407,#408);
#410=PLANE('',#409);
#411=ORIENTED_EDGE('',*,*,#273,.F.);
#412=ORIENTED_EDGE('',*,*,#372,.F.);
#413=ORIENTED_EDGE('',*,*,#342,.F.);
#414=ORIENTED_EDGE('',*,*,#311,.F.);
#415=EDGE_LOOP('',(#411,#412,#413,#414));
#416=FACE_OUTER_BOUND('',#415,.T.);
#417=ORIENTED_EDGE('',*,*,#165,.T.);
#418=ORIENTED_EDGE('',*,*,#202,.T.);
#419=EDGE_LOOP('',(#417,#418));
#420=FACE_BOUND('',#419,.T.);
#421=ORIENTED_EDGE('',*,*,#102,.T.);
#422=ORIENTED_EDGE('',*,*,#247,.T.);
#423=EDGE_LOOP('',(#421,#422));
#424=FACE_BOUND('',#423,.T.);
#425=ADVANCED_FACE('',(#416,#420,#424),#410,.T.);
#426=CLOSED_SHELL('',(#106,#169,#214,#259,#299,#330,#361,#385,#405,#425));
#427=MANIFOLD_SOLID_BREP('',#426);
#428=COLOUR_RGB('Default',0.752941191196442,0.752941191196442,0.752941191196442);
#429=FILL_AREA_STYLE_COLOUR('Default',#428);
#430=FILL_AREA_STYLE('Default',(#429));
#431=SURFACE_STYLE_FILL_AREA(#430);
#432=SURFACE_SIDE_STYLE('Default',(#431));
#433=SURFACE_STYLE_USAGE(.BOTH.,#432);
#434=PRESENTATION_STYLE_ASSIGNMENT((#433));
#435=STYLED_ITEM('',(#434),#427);
#436=MECHANICAL_DESIGN_GEOMETRIC_PRESENTATION_REPRESENTATION('',(#435),#36);
#437=ADVANCED_BREP_SHAPE_REPRESENTATION('ABSR',(#427),#36);
#438=SHAPE_REPRESENTATION_RELATIONSHIP('SRR','None',#437,#41);
ENDSEC;
END-ISO-10303-21;
