ISO-10303-21;
HEADER;
/****************************************************************
 * Generated by software with PDE/Lib inside                    *
 * PDElib Version 4.0, created Mon Oct 07, 2002 at 18:44:48     *
 * International Technegroup Inc. (www.iti-oh.com)              *
 ****************************************************************/
FILE_DESCRIPTION((''),'2;1');
FILE_NAME('C:\\Documents and Settings\\mihara\\My Documents\\meg\\drawings\\Inventor\\Vessel_Support_Assembly\\Inner_holder_v3_050106\\adjust_part1_MIR_050106.stp','2005-01-11T19:26:51',('mihara'),(''),'Autodesk Inventor 8','Autodesk Inventor 8','');
FILE_SCHEMA(('AUTOMOTIVE_DESIGN { 1 0 10303 214 1 1 1 1 }'));
ENDSEC;
DATA;
#5=APPLICATION_CONTEXT('automotive design');
#6=APPLICATION_PROTOCOL_DEFINITION('Draft International Standard','automotive_design',1998,#5);
#7=PRODUCT_CONTEXT('None',#5,'mechanical');
#8=PRODUCT('adjust_part1_MIR','adjust_part1_MIR','None',(#7));
#9=PRODUCT_RELATED_PRODUCT_CATEGORY('part','description',(#8));
#10=PRODUCT_DEFINITION_FORMATION('None','None',#8);
#11=PRODUCT_DEFINITION_CONTEXT('part definition',#5,'design');
#12=PRODUCT_DEFINITION('None','None',#10,#11);
#18=(NAMED_UNIT(*)PLANE_ANGLE_UNIT()SI_UNIT($,.RADIAN.));
#19=DIMENSIONAL_EXPONENTS(0.0,0.0,0.0,0.0,0.0,0.0,0.0);
#20=PLANE_ANGLE_MEASURE_WITH_UNIT(PLANE_ANGLE_MEASURE(0.017453292500000),#18);
#24=(CONVERSION_BASED_UNIT('DEGREE',#20)NAMED_UNIT(#19)PLANE_ANGLE_UNIT());
#28=(NAMED_UNIT(*)SI_UNIT($,.STERADIAN.)SOLID_ANGLE_UNIT());
#32=(LENGTH_UNIT()NAMED_UNIT(*)SI_UNIT(.MILLI.,.METRE.));
#34=UNCERTAINTY_MEASURE_WITH_UNIT(LENGTH_MEASURE(0.000001000000000),#32,'DISTANCE_ACCURACY_VALUE','');
#36=(GEOMETRIC_REPRESENTATION_CONTEXT(3)GLOBAL_UNCERTAINTY_ASSIGNED_CONTEXT((#34))GLOBAL_UNIT_ASSIGNED_CONTEXT((#24,#28,#32))REPRESENTATION_CONTEXT('None','None'));
#37=AXIS2_PLACEMENT_3D('',#38,#39,#40);
#38=CARTESIAN_POINT('',(0.0,0.0,0.0));
#39=DIRECTION('',(0.0,0.0,1.0));
#40=DIRECTION('',(1.0,0.0,0.0));
#41=SHAPE_REPRESENTATION('',(#37),#36);
#42=PRODUCT_DEFINITION_SHAPE('','',#12);
#43=SHAPE_DEFINITION_REPRESENTATION(#42,#41);
#44=CARTESIAN_POINT('',(7.999999999999961,633.0,22.589146286028097));
#45=DIRECTION('',(0.0,0.0,1.0));
#46=DIRECTION('',(1.0,0.0,0.0));
#47=AXIS2_PLACEMENT_3D('',#44,#45,#46);
#48=CYLINDRICAL_SURFACE('',#47,3.000000000000000);
#49=CARTESIAN_POINT('',(10.999999999999961,633.0,-39.000000000000014));
#50=VERTEX_POINT('',#49);
#51=CARTESIAN_POINT('',(10.999999999999961,633.0,-49.0));
#52=VERTEX_POINT('',#51);
#53=CARTESIAN_POINT('',(10.999999999999961,633.0,-39.000000000000014));
#54=DIRECTION('',(0.0,0.0,-1.0));
#55=VECTOR('',#54,9.999999999999986);
#56=LINE('',#53,#55);
#57=EDGE_CURVE('',#50,#52,#56,.T.);
#58=ORIENTED_EDGE('',*,*,#57,.F.);
#59=CARTESIAN_POINT('',(4.999999999999960,633.0,-39.000000000000014));
#60=VERTEX_POINT('',#59);
#61=CARTESIAN_POINT('',(7.999999999999961,633.0,-39.000000000000014));
#62=DIRECTION('',(0.0,0.0,1.0));
#63=DIRECTION('',(1.0,0.0,0.0));
#64=AXIS2_PLACEMENT_3D('',#61,#62,#63);
#65=CIRCLE('',#64,3.000000000000000);
#66=EDGE_CURVE('',#50,#60,#65,.T.);
#67=ORIENTED_EDGE('',*,*,#66,.T.);
#68=CARTESIAN_POINT('',(4.999999999999961,633.0,-49.0));
#69=VERTEX_POINT('',#68);
#70=CARTESIAN_POINT('',(4.999999999999961,633.0,-49.0));
#71=DIRECTION('',(0.0,0.0,1.0));
#72=VECTOR('',#71,9.999999999999986);
#73=LINE('',#70,#72);
#74=EDGE_CURVE('',#69,#60,#73,.T.);
#75=ORIENTED_EDGE('',*,*,#74,.F.);
#76=CARTESIAN_POINT('',(7.999999999999961,633.0,-49.0));
#77=DIRECTION('',(0.0,0.0,-1.0));
#78=DIRECTION('',(1.0,0.0,0.0));
#79=AXIS2_PLACEMENT_3D('',#76,#77,#78);
#80=CIRCLE('',#79,3.000000000000000);
#81=EDGE_CURVE('',#69,#52,#80,.T.);
#82=ORIENTED_EDGE('',*,*,#81,.T.);
#83=EDGE_LOOP('',(#58,#67,#75,#82));
#84=FACE_OUTER_BOUND('',#83,.T.);
#85=ADVANCED_FACE('',(#84),#48,.F.);
#86=CARTESIAN_POINT('',(21.999999999999961,633.0,22.589146286028097));
#87=DIRECTION('',(0.0,0.0,1.0));
#88=DIRECTION('',(1.0,0.0,0.0));
#89=AXIS2_PLACEMENT_3D('',#86,#87,#88);
#90=CYLINDRICAL_SURFACE('',#89,3.000000000000000);
#91=CARTESIAN_POINT('',(24.999999999999961,633.0,-39.000000000000014));
#92=VERTEX_POINT('',#91);
#93=CARTESIAN_POINT('',(24.999999999999964,633.0,-49.0));
#94=VERTEX_POINT('',#93);
#95=CARTESIAN_POINT('',(24.999999999999961,633.0,-39.000000000000014));
#96=DIRECTION('',(0.0,0.0,-1.0));
#97=VECTOR('',#96,9.999999999999986);
#98=LINE('',#95,#97);
#99=EDGE_CURVE('',#92,#94,#98,.T.);
#100=ORIENTED_EDGE('',*,*,#99,.F.);
#101=CARTESIAN_POINT('',(18.999999999999961,633.0,-39.000000000000014));
#102=VERTEX_POINT('',#101);
#103=CARTESIAN_POINT('',(21.999999999999961,633.0,-39.000000000000014));
#104=DIRECTION('',(0.0,0.0,1.0));
#105=DIRECTION('',(1.0,0.0,0.0));
#106=AXIS2_PLACEMENT_3D('',#103,#104,#105);
#107=CIRCLE('',#106,3.000000000000000);
#108=EDGE_CURVE('',#92,#102,#107,.T.);
#109=ORIENTED_EDGE('',*,*,#108,.T.);
#110=CARTESIAN_POINT('',(18.999999999999961,633.0,-49.0));
#111=VERTEX_POINT('',#110);
#112=CARTESIAN_POINT('',(18.999999999999961,633.0,-49.0));
#113=DIRECTION('',(0.0,0.0,1.0));
#114=VECTOR('',#113,9.999999999999986);
#115=LINE('',#112,#114);
#116=EDGE_CURVE('',#111,#102,#115,.T.);
#117=ORIENTED_EDGE('',*,*,#116,.F.);
#118=CARTESIAN_POINT('',(21.999999999999961,633.0,-49.0));
#119=DIRECTION('',(0.0,0.0,-1.0));
#120=DIRECTION('',(1.0,0.0,0.0));
#121=AXIS2_PLACEMENT_3D('',#118,#119,#120);
#122=CIRCLE('',#121,3.000000000000000);
#123=EDGE_CURVE('',#111,#94,#122,.T.);
#124=ORIENTED_EDGE('',*,*,#123,.T.);
#125=EDGE_LOOP('',(#100,#109,#117,#124));
#126=FACE_OUTER_BOUND('',#125,.T.);
#127=ADVANCED_FACE('',(#126),#90,.F.);
#128=CARTESIAN_POINT('',(51.589146286028097,633.0,-8.0));
#129=DIRECTION('',(1.0,0.0,0.0));
#130=DIRECTION('',(0.0,0.0,-1.0));
#131=AXIS2_PLACEMENT_3D('',#128,#129,#130);
#132=CYLINDRICAL_SURFACE('',#131,4.0);
#133=CARTESIAN_POINT('',(-10.000000000000009,633.0,-12.0));
#134=VERTEX_POINT('',#133);
#135=CARTESIAN_POINT('',(-20.0,633.0,-12.000000000000002));
#136=VERTEX_POINT('',#135);
#137=CARTESIAN_POINT('',(-10.000000000000009,633.0,-12.0));
#138=DIRECTION('',(-1.0,0.0,0.0));
#139=VECTOR('',#138,9.999999999999991);
#140=LINE('',#137,#139);
#141=EDGE_CURVE('',#134,#136,#140,.T.);
#142=ORIENTED_EDGE('',*,*,#141,.F.);
#143=CARTESIAN_POINT('',(-10.000000000000009,633.0,-4.0));
#144=VERTEX_POINT('',#143);
#145=CARTESIAN_POINT('',(-10.000000000000009,633.0,-8.0));
#146=DIRECTION('',(1.0,0.0,0.0));
#147=DIRECTION('',(0.0,0.0,-1.0));
#148=AXIS2_PLACEMENT_3D('',#145,#146,#147);
#149=CIRCLE('',#148,4.0);
#150=EDGE_CURVE('',#134,#144,#149,.T.);
#151=ORIENTED_EDGE('',*,*,#150,.T.);
#152=CARTESIAN_POINT('',(-20.0,633.0,-4.0));
#153=VERTEX_POINT('',#152);
#154=CARTESIAN_POINT('',(-20.0,633.0,-4.0));
#155=DIRECTION('',(1.0,0.0,0.0));
#156=VECTOR('',#155,9.999999999999991);
#157=LINE('',#154,#156);
#158=EDGE_CURVE('',#153,#144,#157,.T.);
#159=ORIENTED_EDGE('',*,*,#158,.F.);
#160=CARTESIAN_POINT('',(-20.0,633.0,-8.0));
#161=DIRECTION('',(-1.0,0.0,0.0));
#162=DIRECTION('',(0.0,0.0,-1.0));
#163=AXIS2_PLACEMENT_3D('',#160,#161,#162);
#164=CIRCLE('',#163,4.0);
#165=EDGE_CURVE('',#153,#136,#164,.T.);
#166=ORIENTED_EDGE('',*,*,#165,.T.);
#167=EDGE_LOOP('',(#142,#151,#159,#166));
#168=FACE_OUTER_BOUND('',#167,.T.);
#169=ADVANCED_FACE('',(#168),#132,.F.);
#170=CARTESIAN_POINT('',(51.589146286028097,633.0,-8.0));
#171=DIRECTION('',(1.0,0.0,0.0));
#172=DIRECTION('',(0.0,0.0,-1.0));
#173=AXIS2_PLACEMENT_3D('',#170,#171,#172);
#174=CYLINDRICAL_SURFACE('',#173,4.0);
#175=ORIENTED_EDGE('',*,*,#141,.T.);
#176=CARTESIAN_POINT('',(-20.0,633.0,-8.0));
#177=DIRECTION('',(-1.0,0.0,0.0));
#178=DIRECTION('',(0.0,0.0,-1.0));
#179=AXIS2_PLACEMENT_3D('',#176,#177,#178);
#180=CIRCLE('',#179,4.0);
#181=EDGE_CURVE('',#136,#153,#180,.T.);
#182=ORIENTED_EDGE('',*,*,#181,.T.);
#183=ORIENTED_EDGE('',*,*,#158,.T.);
#184=CARTESIAN_POINT('',(-10.000000000000009,633.0,-8.0));
#185=DIRECTION('',(1.0,0.0,0.0));
#186=DIRECTION('',(0.0,0.0,-1.0));
#187=AXIS2_PLACEMENT_3D('',#184,#185,#186);
#188=CIRCLE('',#187,4.0);
#189=EDGE_CURVE('',#144,#134,#188,.T.);
#190=ORIENTED_EDGE('',*,*,#189,.T.);
#191=EDGE_LOOP('',(#175,#182,#183,#190));
#192=FACE_OUTER_BOUND('',#191,.T.);
#193=ADVANCED_FACE('',(#192),#174,.F.);
#194=CARTESIAN_POINT('',(21.999999999999961,633.0,22.589146286028097));
#195=DIRECTION('',(0.0,0.0,1.0));
#196=DIRECTION('',(1.0,0.0,0.0));
#197=AXIS2_PLACEMENT_3D('',#194,#195,#196);
#198=CYLINDRICAL_SURFACE('',#197,3.000000000000000);
#199=ORIENTED_EDGE('',*,*,#99,.T.);
#200=CARTESIAN_POINT('',(21.999999999999961,633.0,-49.0));
#201=DIRECTION('',(0.0,0.0,-1.0));
#202=DIRECTION('',(1.0,0.0,0.0));
#203=AXIS2_PLACEMENT_3D('',#200,#201,#202);
#204=CIRCLE('',#203,3.000000000000000);
#205=EDGE_CURVE('',#94,#111,#204,.T.);
#206=ORIENTED_EDGE('',*,*,#205,.T.);
#207=ORIENTED_EDGE('',*,*,#116,.T.);
#208=CARTESIAN_POINT('',(21.999999999999961,633.0,-39.000000000000014));
#209=DIRECTION('',(0.0,0.0,1.0));
#210=DIRECTION('',(1.0,0.0,0.0));
#211=AXIS2_PLACEMENT_3D('',#208,#209,#210);
#212=CIRCLE('',#211,3.000000000000000);
#213=EDGE_CURVE('',#102,#92,#212,.T.);
#214=ORIENTED_EDGE('',*,*,#213,.T.);
#215=EDGE_LOOP('',(#199,#206,#207,#214));
#216=FACE_OUTER_BOUND('',#215,.T.);
#217=ADVANCED_FACE('',(#216),#198,.F.);
#218=CARTESIAN_POINT('',(7.999999999999961,633.0,22.589146286028097));
#219=DIRECTION('',(0.0,0.0,1.0));
#220=DIRECTION('',(1.0,0.0,0.0));
#221=AXIS2_PLACEMENT_3D('',#218,#219,#220);
#222=CYLINDRICAL_SURFACE('',#221,3.000000000000000);
#223=ORIENTED_EDGE('',*,*,#57,.T.);
#224=CARTESIAN_POINT('',(7.999999999999961,633.0,-49.0));
#225=DIRECTION('',(0.0,0.0,-1.0));
#226=DIRECTION('',(1.0,0.0,0.0));
#227=AXIS2_PLACEMENT_3D('',#224,#225,#226);
#228=CIRCLE('',#227,3.000000000000000);
#229=EDGE_CURVE('',#52,#69,#228,.T.);
#230=ORIENTED_EDGE('',*,*,#229,.T.);
#231=ORIENTED_EDGE('',*,*,#74,.T.);
#232=CARTESIAN_POINT('',(7.999999999999961,633.0,-39.000000000000014));
#233=DIRECTION('',(0.0,0.0,1.0));
#234=DIRECTION('',(1.0,0.0,0.0));
#235=AXIS2_PLACEMENT_3D('',#232,#233,#234);
#236=CIRCLE('',#235,3.000000000000000);
#237=EDGE_CURVE('',#60,#50,#236,.T.);
#238=ORIENTED_EDGE('',*,*,#237,.T.);
#239=EDGE_LOOP('',(#223,#230,#231,#238));
#240=FACE_OUTER_BOUND('',#239,.T.);
#241=ADVANCED_FACE('',(#240),#222,.F.);
#242=CARTESIAN_POINT('',(-4.999999999999984,640.0,-39.000000000000014));
#243=CARTESIAN_POINT('',(30.000000000000028,640.0,-39.000000000000007));
#244=CARTESIAN_POINT('',(-4.999999999999984,625.684464067093930,-39.000000000000014));
#245=CARTESIAN_POINT('',(30.000000000000028,625.684464067093810,-39.000000000000014));
#246=B_SPLINE_SURFACE_WITH_KNOTS('',1,1,((#242,#244),(#243,#245)),.UNSPECIFIED.,.F.,.F.,.U.,(2,2),(2,2),(0.0,35.000000000000014),(0.0,14.315535932906073),.UNSPECIFIED.);
#247=CARTESIAN_POINT('',(-4.999999999999987,625.684464067093930,-39.000000000000014));
#248=VERTEX_POINT('',#247);
#249=CARTESIAN_POINT('',(29.999999999999972,625.822530366347910,-39.0));
#250=VERTEX_POINT('',#249);
#251=CARTESIAN_POINT('',(15.000000000000039,-8.000000000000043,-39.000000000000014));
#252=DIRECTION('',(0.0,0.0,-1.0));
#253=DIRECTION('',(-1.0,0.0,0.0));
#254=AXIS2_PLACEMENT_3D('',#251,#252,#253);
#255=CIRCLE('',#254,634.0);
#256=EDGE_CURVE('',#248,#250,#255,.T.);
#257=ORIENTED_EDGE('',*,*,#256,.T.);
#258=CARTESIAN_POINT('',(29.999999999999972,640.0,-39.0));
#259=VERTEX_POINT('',#258);
#260=CARTESIAN_POINT('',(29.999999999999972,625.822530366347910,-39.0));
#261=DIRECTION('',(0.0,1.0,0.0));
#262=VECTOR('',#261,14.177469633652095);
#263=LINE('',#260,#262);
#264=EDGE_CURVE('',#250,#259,#263,.T.);
#265=ORIENTED_EDGE('',*,*,#264,.T.);
#266=CARTESIAN_POINT('',(-4.999999999999984,640.0,-39.000000000000014));
#267=VERTEX_POINT('',#266);
#268=CARTESIAN_POINT('',(29.999999999999972,640.0,-39.0));
#269=DIRECTION('',(-1.0,0.0,0.0));
#270=VECTOR('',#269,34.999999999999957);
#271=LINE('',#268,#270);
#272=EDGE_CURVE('',#259,#267,#271,.T.);
#273=ORIENTED_EDGE('',*,*,#272,.T.);
#274=CARTESIAN_POINT('',(-4.999999999999984,640.0,-39.000000000000014));
#275=DIRECTION('',(0.0,-1.0,0.0));
#276=VECTOR('',#275,14.315535932906073);
#277=LINE('',#274,#276);
#278=EDGE_CURVE('',#267,#248,#277,.T.);
#279=ORIENTED_EDGE('',*,*,#278,.T.);
#280=EDGE_LOOP('',(#257,#265,#273,#279));
#281=FACE_OUTER_BOUND('',#280,.T.);
#282=ORIENTED_EDGE('',*,*,#213,.F.);
#283=ORIENTED_EDGE('',*,*,#108,.F.);
#284=EDGE_LOOP('',(#282,#283));
#285=FACE_BOUND('',#284,.T.);
#286=ORIENTED_EDGE('',*,*,#237,.F.);
#287=ORIENTED_EDGE('',*,*,#66,.F.);
#288=EDGE_LOOP('',(#286,#287));
#289=FACE_BOUND('',#288,.T.);
#290=ADVANCED_FACE('',(#281,#285,#289),#246,.F.);
#291=CARTESIAN_POINT('',(-10.000000000000009,640.0,0.0));
#292=CARTESIAN_POINT('',(-10.0,640.0,-34.000000000000007));
#293=CARTESIAN_POINT('',(-10.000000000000009,625.506906039705310,0.0));
#294=CARTESIAN_POINT('',(-9.999999999999998,625.506906039705430,-34.000000000000007));
#295=B_SPLINE_SURFACE_WITH_KNOTS('',1,1,((#291,#293),(#292,#294)),.UNSPECIFIED.,.F.,.F.,.U.,(2,2),(2,2),(0.0,34.000000000000007),(0.0,14.493093960294686),.UNSPECIFIED.);
#296=CARTESIAN_POINT('',(-10.000000000000009,625.506906039705310,-4.898425E-015));
#297=VERTEX_POINT('',#296);
#298=CARTESIAN_POINT('',(-10.0,625.506906039705310,-34.0));
#299=VERTEX_POINT('',#298);
#300=CARTESIAN_POINT('',(-10.000000000000009,625.506906039705310,-4.898425E-015));
#301=DIRECTION('',(0.0,0.0,-1.0));
#302=VECTOR('',#301,33.999999999999993);
#303=LINE('',#300,#302);
#304=EDGE_CURVE('',#297,#299,#303,.T.);
#305=ORIENTED_EDGE('',*,*,#304,.T.);
#306=CARTESIAN_POINT('',(-10.0,640.0,-34.0));
#307=VERTEX_POINT('',#306);
#308=CARTESIAN_POINT('',(-10.0,640.0,-34.0));
#309=DIRECTION('',(0.0,-1.0,0.0));
#310=VECTOR('',#309,14.493093960294686);
#311=LINE('',#308,#310);
#312=EDGE_CURVE('',#307,#299,#311,.T.);
#313=ORIENTED_EDGE('',*,*,#312,.F.);
#314=CARTESIAN_POINT('',(-10.000000000000009,640.0,-4.898425E-015));
#315=VERTEX_POINT('',#314);
#316=CARTESIAN_POINT('',(-10.0,640.0,-34.0));
#317=DIRECTION('',(0.0,0.0,1.0));
#318=VECTOR('',#317,33.999999999999993);
#319=LINE('',#316,#318);
#320=EDGE_CURVE('',#307,#315,#319,.T.);
#321=ORIENTED_EDGE('',*,*,#320,.T.);
#322=CARTESIAN_POINT('',(-10.000000000000009,640.0,-4.898425E-015));
#323=DIRECTION('',(0.0,-1.0,0.0));
#324=VECTOR('',#323,14.493093960294686);
#325=LINE('',#322,#324);
#326=EDGE_CURVE('',#315,#297,#325,.T.);
#327=ORIENTED_EDGE('',*,*,#326,.T.);
#328=EDGE_LOOP('',(#305,#313,#321,#327));
#329=FACE_OUTER_BOUND('',#328,.T.);
#330=ORIENTED_EDGE('',*,*,#189,.F.);
#331=ORIENTED_EDGE('',*,*,#150,.F.);
#332=EDGE_LOOP('',(#330,#331));
#333=FACE_BOUND('',#332,.T.);
#334=ADVANCED_FACE('',(#329,#333),#295,.F.);
#335=CARTESIAN_POINT('',(2.220446E-014,640.0,-34.0));
#336=CARTESIAN_POINT('',(2.220446E-014,625.504536063989690,-34.0));
#337=CARTESIAN_POINT('',(2.131628E-014,640.0,-39.000000000000007));
#338=CARTESIAN_POINT('',(2.131628E-014,625.504536063989690,-39.000000000000007));
#339=CARTESIAN_POINT('',(-4.999999999999987,640.0,-39.000000000000007));
#340=CARTESIAN_POINT('',(-4.999999999999987,625.504536063989690,-39.000000000000007));
#341=CARTESIAN_POINT('',(-9.999999999999995,640.0,-39.000000000000007));
#342=CARTESIAN_POINT('',(-9.999999999999995,625.504536063989690,-39.000000000000007));
#343=CARTESIAN_POINT('',(-9.999999999999996,640.0,-34.0));
#344=CARTESIAN_POINT('',(-9.999999999999996,625.504536063989690,-34.0));
#345=CARTESIAN_POINT('',(-9.999999999999995,640.0,-28.999999999999989));
#346=CARTESIAN_POINT('',(-9.999999999999995,625.504536063989690,-28.999999999999989));
#347=CARTESIAN_POINT('',(-4.999999999999987,640.0,-28.999999999999993));
#348=CARTESIAN_POINT('',(-4.999999999999987,625.504536063989690,-28.999999999999993));
#349=CARTESIAN_POINT('',(2.131628E-014,640.0,-28.999999999999989));
#350=CARTESIAN_POINT('',(2.131628E-014,625.504536063989690,-28.999999999999989));
#351=CARTESIAN_POINT('',(2.220446E-014,640.0,-34.0));
#352=CARTESIAN_POINT('',(2.220446E-014,625.504536063989690,-34.0));
#360=(BOUNDED_SURFACE()B_SPLINE_SURFACE(1,2,((#335,#337,#339,#341,#343,#345,#347,#349,#351),(#336,#338,#340,#342,#344,#346,#348,#350,#352)),.UNSPECIFIED.,.F.,.T.,.U.)B_SPLINE_SURFACE_WITH_KNOTS((2,2),(3,2,2,2,3),(0.0,2.899092787202057),(0.0,7.853981633974497,15.707963267948994,23.561944901923489,31.415926535897988),.UNSPECIFIED.)GEOMETRIC_REPRESENTATION_ITEM()RATIONAL_B_SPLINE_SURFACE(((1.0,0.707106781186548,1.0,0.707106781186548,1.0,0.707106781186548,1.0,0.707106781186548,1.0),(1.0,0.707106781186548,1.0,0.707106781186548,1.0,0.707106781186548,1.0,0.707106781186548,1.0)))REPRESENTATION_ITEM('')SURFACE());
#361=CARTESIAN_POINT('',(-10.0,625.506906039705310,-34.0));
#362=CARTESIAN_POINT('',(-10.0,625.506906039705310,-34.627803620176650));
#363=CARTESIAN_POINT('',(-9.874532589860458,625.511896330712260,-35.297416993497713));
#364=CARTESIAN_POINT('',(-9.364372488657157,625.531721792463940,-36.529152351247191));
#365=CARTESIAN_POINT('',(-8.979682843649897,625.546503397448300,-37.091276458876543));
#366=CARTESIAN_POINT('',(-8.091966210298583,625.579480810681730,-37.979210074436317));
#367=CARTESIAN_POINT('',(-7.529654292772092,625.599869483880980,-38.364109701679183));
#368=CARTESIAN_POINT('',(-6.297617530356208,625.642479178971140,-38.874504393080286));
#369=CARTESIAN_POINT('',(-5.627891068016504,625.664646915068830,-39.000000000000014));
#370=CARTESIAN_POINT('',(-4.999999999999987,625.684464067093930,-39.000000000000014));
#371=B_SPLINE_CURVE_WITH_KNOTS('',3,(#361,#362,#363,#364,#365,#366,#367,#368,#369,#370),.UNSPECIFIED.,.F.,.U.,(4,2,2,2,4),(1.507128678399087,1.695469764452081,1.883810850505076,2.072271966263308,2.260733082021539),.UNSPECIFIED.);
#372=EDGE_CURVE('',#299,#248,#371,.T.);
#373=ORIENTED_EDGE('',*,*,#372,.T.);
#374=ORIENTED_EDGE('',*,*,#278,.F.);
#375=CARTESIAN_POINT('',(-4.999999999999987,640.0,-34.0));
#376=DIRECTION('',(0.0,1.0,0.0));
#377=DIRECTION('',(-1.0,0.0,0.0));
#378=AXIS2_PLACEMENT_3D('',#375,#376,#377);
#379=CIRCLE('',#378,5.000000000000009);
#380=EDGE_CURVE('',#267,#307,#379,.T.);
#381=ORIENTED_EDGE('',*,*,#380,.T.);
#382=ORIENTED_EDGE('',*,*,#312,.T.);
#383=EDGE_LOOP('',(#373,#374,#381,#382));
#384=FACE_OUTER_BOUND('',#383,.T.);
#385=ADVANCED_FACE('',(#384),#360,.F.);
#386=CARTESIAN_POINT('',(29.999999999999957,640.0,-49.0));
#387=CARTESIAN_POINT('',(29.999999999999957,640.0,-39.0));
#388=CARTESIAN_POINT('',(29.999999999999964,625.822530366347910,-49.0));
#389=CARTESIAN_POINT('',(29.999999999999964,625.822530366348020,-39.0));
#390=B_SPLINE_SURFACE_WITH_KNOTS('',1,1,((#386,#388),(#387,#389)),.UNSPECIFIED.,.F.,.F.,.U.,(2,2),(2,2),(0.0,10.0),(0.0,14.177469633652095),.UNSPECIFIED.);
#391=ORIENTED_EDGE('',*,*,#264,.F.);
#392=CARTESIAN_POINT('',(29.999999999999964,625.822530366347910,-49.0));
#393=VERTEX_POINT('',#392);
#394=CARTESIAN_POINT('',(29.999999999999972,625.822530366347910,-39.0));
#395=DIRECTION('',(0.0,0.0,-1.0));
#396=VECTOR('',#395,10.0);
#397=LINE('',#394,#396);
#398=EDGE_CURVE('',#250,#393,#397,.T.);
#399=ORIENTED_EDGE('',*,*,#398,.T.);
#400=CARTESIAN_POINT('',(29.999999999999957,640.0,-49.0));
#401=VERTEX_POINT('',#400);
#402=CARTESIAN_POINT('',(29.999999999999957,640.0,-49.0));
#403=DIRECTION('',(0.0,-1.0,0.0));
#404=VECTOR('',#403,14.177469633652095);
#405=LINE('',#402,#404);
#406=EDGE_CURVE('',#401,#393,#405,.T.);
#407=ORIENTED_EDGE('',*,*,#406,.F.);
#408=CARTESIAN_POINT('',(29.999999999999972,640.0,-39.0));
#409=DIRECTION('',(0.0,0.0,-1.0));
#410=VECTOR('',#409,10.0);
#411=LINE('',#408,#410);
#412=EDGE_CURVE('',#259,#401,#411,.T.);
#413=ORIENTED_EDGE('',*,*,#412,.F.);
#414=EDGE_LOOP('',(#391,#399,#407,#413));
#415=FACE_OUTER_BOUND('',#414,.T.);
#416=ADVANCED_FACE('',(#415),#390,.T.);
#417=CARTESIAN_POINT('',(29.999999999999979,640.0,0.0));
#418=CARTESIAN_POINT('',(29.999999999999979,640.0,-49.0));
#419=CARTESIAN_POINT('',(-20.0,640.0,0.0));
#420=CARTESIAN_POINT('',(-20.0,640.0,-49.0));
#421=B_SPLINE_SURFACE_WITH_KNOTS('',1,1,((#417,#419),(#418,#420)),.UNSPECIFIED.,.F.,.F.,.U.,(2,2),(2,2),(0.0,49.0),(0.0,49.999999999999979),.UNSPECIFIED.);
#422=ORIENTED_EDGE('',*,*,#272,.F.);
#423=ORIENTED_EDGE('',*,*,#412,.T.);
#424=CARTESIAN_POINT('',(-20.0,640.0,-49.0));
#425=VERTEX_POINT('',#424);
#426=CARTESIAN_POINT('',(-20.0,640.0,-49.0));
#427=DIRECTION('',(1.0,0.0,0.0));
#428=VECTOR('',#427,49.999999999999957);
#429=LINE('',#426,#428);
#430=EDGE_CURVE('',#425,#401,#429,.T.);
#431=ORIENTED_EDGE('',*,*,#430,.F.);
#432=CARTESIAN_POINT('',(-20.0,640.0,0.0));
#433=VERTEX_POINT('',#432);
#434=CARTESIAN_POINT('',(-20.0,640.0,0.0));
#435=DIRECTION('',(0.0,0.0,-1.0));
#436=VECTOR('',#435,49.0);
#437=LINE('',#434,#436);
#438=EDGE_CURVE('',#433,#425,#437,.T.);
#439=ORIENTED_EDGE('',*,*,#438,.F.);
#440=CARTESIAN_POINT('',(-10.000000000000009,640.0,-4.898425E-015));
#441=DIRECTION('',(-1.0,0.0,0.0));
#442=VECTOR('',#441,9.999999999999991);
#443=LINE('',#440,#442);
#444=EDGE_CURVE('',#315,#433,#443,.T.);
#445=ORIENTED_EDGE('',*,*,#444,.F.);
#446=ORIENTED_EDGE('',*,*,#320,.F.);
#447=ORIENTED_EDGE('',*,*,#380,.F.);
#448=EDGE_LOOP('',(#422,#423,#431,#439,#445,#446,#447));
#449=FACE_OUTER_BOUND('',#448,.T.);
#450=ADVANCED_FACE('',(#449),#421,.T.);
#451=CARTESIAN_POINT('',(649.0,-7.999999999999965,-49.0));
#452=CARTESIAN_POINT('',(649.0,-7.999999999999965,0.0));
#453=CARTESIAN_POINT('',(648.999999999999890,626.0,-49.0));
#454=CARTESIAN_POINT('',(648.999999999999890,626.0,0.0));
#455=CARTESIAN_POINT('',(14.999999999999961,626.0,-49.0));
#456=CARTESIAN_POINT('',(14.999999999999961,626.0,0.0));
#457=CARTESIAN_POINT('',(-618.999999999999890,625.999999999999770,-49.0));
#458=CARTESIAN_POINT('',(-618.999999999999890,625.999999999999770,0.0));
#459=CARTESIAN_POINT('',(-619.0,-8.000000000000121,-49.0));
#460=CARTESIAN_POINT('',(-619.0,-8.000000000000121,0.0));
#461=CARTESIAN_POINT('',(-618.999999999999770,-642.0,-49.0));
#462=CARTESIAN_POINT('',(-618.999999999999770,-642.0,0.0));
#463=CARTESIAN_POINT('',(15.000000000000117,-642.0,-49.0));
#464=CARTESIAN_POINT('',(15.000000000000117,-642.0,0.0));
#465=CARTESIAN_POINT('',(649.0,-641.999999999999770,-49.0));
#466=CARTESIAN_POINT('',(649.0,-641.999999999999770,0.0));
#467=CARTESIAN_POINT('',(649.0,-7.999999999999965,-49.0));
#468=CARTESIAN_POINT('',(649.0,-7.999999999999965,0.0));
#476=(BOUNDED_SURFACE()B_SPLINE_SURFACE(1,2,((#451,#453,#455,#457,#459,#461,#463,#465,#467),(#452,#454,#456,#458,#460,#462,#464,#466,#468)),.UNSPECIFIED.,.F.,.T.,.U.)B_SPLINE_SURFACE_WITH_KNOTS((2,2),(3,2,2,2,3),(-0.077287066246057,0.0),(0.0,995.884871187964450,1991.769742375928900,2987.654613563893200,3983.539484751857800),.UNSPECIFIED.)GEOMETRIC_REPRESENTATION_ITEM()RATIONAL_B_SPLINE_SURFACE(((1.0,0.707106781186548,1.0,0.707106781186548,1.0,0.707106781186548,1.0,0.707106781186548,1.0),(1.0,0.707106781186548,1.0,0.707106781186548,1.0,0.707106781186548,1.0,0.707106781186548,1.0)))REPRESENTATION_ITEM('')SURFACE());
#477=ORIENTED_EDGE('',*,*,#256,.F.);
#478=ORIENTED_EDGE('',*,*,#372,.F.);
#479=ORIENTED_EDGE('',*,*,#304,.F.);
#480=CARTESIAN_POINT('',(-20.0,625.033174486140180,0.0));
#481=VERTEX_POINT('',#480);
#482=CARTESIAN_POINT('',(15.000000000000039,-8.000000000000043,0.0));
#483=DIRECTION('',(0.0,0.0,-1.0));
#484=DIRECTION('',(-1.0,0.0,0.0));
#485=AXIS2_PLACEMENT_3D('',#482,#483,#484);
#486=CIRCLE('',#485,634.0);
#487=EDGE_CURVE('',#481,#297,#486,.T.);
#488=ORIENTED_EDGE('',*,*,#487,.F.);
#489=CARTESIAN_POINT('',(-20.0,625.033174486140180,-49.0));
#490=VERTEX_POINT('',#489);
#491=CARTESIAN_POINT('',(-20.0,625.033174486140180,0.0));
#492=DIRECTION('',(0.0,0.0,-1.0));
#493=VECTOR('',#492,49.0);
#494=LINE('',#491,#493);
#495=EDGE_CURVE('',#481,#490,#494,.T.);
#496=ORIENTED_EDGE('',*,*,#495,.T.);
#497=CARTESIAN_POINT('',(15.000000000000039,-8.000000000000043,-49.0));
#498=DIRECTION('',(0.0,0.0,1.0));
#499=DIRECTION('',(-1.0,0.0,0.0));
#500=AXIS2_PLACEMENT_3D('',#497,#498,#499);
#501=CIRCLE('',#500,634.0);
#502=EDGE_CURVE('',#393,#490,#501,.T.);
#503=ORIENTED_EDGE('',*,*,#502,.F.);
#504=ORIENTED_EDGE('',*,*,#398,.F.);
#505=EDGE_LOOP('',(#477,#478,#479,#488,#496,#503,#504));
#506=FACE_OUTER_BOUND('',#505,.T.);
#507=ADVANCED_FACE('',(#506),#476,.T.);
#508=CARTESIAN_POINT('',(-20.0,640.0,0.0));
#509=CARTESIAN_POINT('',(-20.0,640.0,-49.0));
#510=CARTESIAN_POINT('',(-20.0,625.033174486140180,0.0));
#511=CARTESIAN_POINT('',(-20.0,625.033174486140070,-49.0));
#512=B_SPLINE_SURFACE_WITH_KNOTS('',1,1,((#508,#510),(#509,#511)),.UNSPECIFIED.,.F.,.F.,.U.,(2,2),(2,2),(0.0,49.0),(0.0,14.966825513859817),.UNSPECIFIED.);
#513=CARTESIAN_POINT('',(-20.0,625.033174486140180,-49.0));
#514=DIRECTION('',(0.0,1.0,0.0));
#515=VECTOR('',#514,14.966825513859817);
#516=LINE('',#513,#515);
#517=EDGE_CURVE('',#490,#425,#516,.T.);
#518=ORIENTED_EDGE('',*,*,#517,.F.);
#519=ORIENTED_EDGE('',*,*,#495,.F.);
#520=CARTESIAN_POINT('',(-20.0,640.0,0.0));
#521=DIRECTION('',(0.0,-1.0,0.0));
#522=VECTOR('',#521,14.966825513859817);
#523=LINE('',#520,#522);
#524=EDGE_CURVE('',#433,#481,#523,.T.);
#525=ORIENTED_EDGE('',*,*,#524,.F.);
#526=ORIENTED_EDGE('',*,*,#438,.T.);
#527=EDGE_LOOP('',(#518,#519,#525,#526));
#528=FACE_OUTER_BOUND('',#527,.T.);
#529=ORIENTED_EDGE('',*,*,#181,.F.);
#530=ORIENTED_EDGE('',*,*,#165,.F.);
#531=EDGE_LOOP('',(#529,#530));
#532=FACE_BOUND('',#531,.T.);
#533=ADVANCED_FACE('',(#528,#532),#512,.T.);
#534=CARTESIAN_POINT('',(-20.000000000000028,640.0,0.0));
#535=CARTESIAN_POINT('',(-10.000000000000009,640.0,0.0));
#536=CARTESIAN_POINT('',(-20.000000000000028,625.033174486140180,0.0));
#537=CARTESIAN_POINT('',(-10.000000000000007,625.033174486140070,0.0));
#538=B_SPLINE_SURFACE_WITH_KNOTS('',1,1,((#534,#536),(#535,#537)),.UNSPECIFIED.,.F.,.F.,.U.,(2,2),(2,2),(0.0,10.000000000000020),(0.0,14.966825513859817),.UNSPECIFIED.);
#539=ORIENTED_EDGE('',*,*,#326,.F.);
#540=ORIENTED_EDGE('',*,*,#444,.T.);
#541=ORIENTED_EDGE('',*,*,#524,.T.);
#542=ORIENTED_EDGE('',*,*,#487,.T.);
#543=EDGE_LOOP('',(#539,#540,#541,#542));
#544=FACE_OUTER_BOUND('',#543,.T.);
#545=ADVANCED_FACE('',(#544),#538,.F.);
#546=CARTESIAN_POINT('',(-20.000000000000025,640.0,-49.0));
#547=CARTESIAN_POINT('',(30.000000000000032,640.0,-49.0));
#548=CARTESIAN_POINT('',(-20.000000000000025,625.033174486140180,-49.0));
#549=CARTESIAN_POINT('',(30.000000000000032,625.033174486140070,-49.0));
#550=B_SPLINE_SURFACE_WITH_KNOTS('',1,1,((#546,#548),(#547,#549)),.UNSPECIFIED.,.F.,.F.,.U.,(2,2),(2,2),(0.0,50.000000000000057),(0.0,14.966825513859817),.UNSPECIFIED.);
#551=ORIENTED_EDGE('',*,*,#502,.T.);
#552=ORIENTED_EDGE('',*,*,#517,.T.);
#553=ORIENTED_EDGE('',*,*,#430,.T.);
#554=ORIENTED_EDGE('',*,*,#406,.T.);
#555=EDGE_LOOP('',(#551,#552,#553,#554));
#556=FACE_OUTER_BOUND('',#555,.T.);
#557=ORIENTED_EDGE('',*,*,#205,.F.);
#558=ORIENTED_EDGE('',*,*,#123,.F.);
#559=EDGE_LOOP('',(#557,#558));
#560=FACE_BOUND('',#559,.T.);
#561=ORIENTED_EDGE('',*,*,#229,.F.);
#562=ORIENTED_EDGE('',*,*,#81,.F.);
#563=EDGE_LOOP('',(#561,#562));
#564=FACE_BOUND('',#563,.T.);
#565=ADVANCED_FACE('',(#556,#560,#564),#550,.T.);
#566=CLOSED_SHELL('',(#85,#127,#169,#193,#217,#241,#290,#334,#385,#416,#450,#507,#533,#545,#565));
#567=MANIFOLD_SOLID_BREP('',#566);
#568=COLOUR_RGB('Default',0.752941191196442,0.752941191196442,0.752941191196442);
#569=FILL_AREA_STYLE_COLOUR('Default',#568);
#570=FILL_AREA_STYLE('Default',(#569));
#571=SURFACE_STYLE_FILL_AREA(#570);
#572=SURFACE_SIDE_STYLE('Default',(#571));
#573=SURFACE_STYLE_USAGE(.BOTH.,#572);
#574=PRESENTATION_STYLE_ASSIGNMENT((#573));
#575=STYLED_ITEM('',(#574),#567);
#576=MECHANICAL_DESIGN_GEOMETRIC_PRESENTATION_REPRESENTATION('',(#575),#36);
#577=ADVANCED_BREP_SHAPE_REPRESENTATION('ABSR',(#567),#36);
#578=SHAPE_REPRESENTATION_RELATIONSHIP('SRR','None',#577,#41);
ENDSEC;
END-ISO-10303-21;
